Your One-Stop Source For
Music Lyrics
Bass and Guitar Tabs
and More...
Music Lyrics Bass and Guitar Tabs

 

The Tabs Are Below

Learn To Read Tab
Chords Handbook
Corrections & Additions
Get Official Tab
DMB tabs @ 911Tabs

Tabbed by jhp4c2@mizzou.edu

 

 

 

 

Intro:

E-----------------

B---------x-x-x---

G--4-4-4--2-2-2---

D--4-4-4--2-2-2---

A--2-2-2--0-0-0---

E--x-x-x--0-0-0---

 

 

Verse:

E-------------------------------

B----------x-x-x----------------

G--4-4-4---2-2-2---------------- repeat

D--4-4-4---2-2-2----------------

A--2-2-2---0-0-0-----------0----

E--x-x-x---0-0-0---0--2--3------

 

 

Sweet Up and down...

E-------- ---------------

B-------- ---------------

G--2--4-- --------------- back to verse

D--0--0-- -----------2---

A--0--x-- --2--4--5--0---

E--2--3-- --0--2--3------

 

 

Return to my to my DMB tabs page

The Tablature is Copyright its respective owners.

Sign Up For My Newsletter
Subscribe | Unsubscribe

Site Map | Disclaimer | Privacy Policy | Media Kit | Submissions/Corrections

Website © 2000-2014 mattsmusicpage.com. All rights reserved.

Legal & DMCA: Matt's Music Page has been providing lyrics and tabs in a legal way, paying royalties each year to a few organizations. Then, all lyrics and tabs were removed from the site. Now, there's a new owner to the site, which purchased it August 26, 2014, and he is in negotiation to obtain licensing from BMI at the moment. If you have a specific DMCA request -- please do not hesitate to contact me via the contact button on top. I will do my very best to keep this site fully legal.

Get our toolbar!