Your One-Stop Source For
Music Lyrics
Bass and Guitar Tabs
and More...
Music Lyrics Bass and Guitar Tabs

 

The Tabs Are Below

Learn To Read Tab
Chords Handbook
Corrections & Additions
Get Official Tab
DMB tabs @ 911Tabs

The Stone

---------

Credit.....Rory Lowe.....Glade14@aol.com

 

For this song you just have to find the rhythm yourself..its easy to pick

out...

 

Intro and Verses

 

E---------------------------------------------------------------

B--------------------------------------------------------------

G---2-----0----------------2-------0--------------------------

D---0--3-----2--3--2--0--0---3-----2--3--2--0-------------

A-------------------------------------------------------------

E--------------------------------------------------------------

 

Chorus

 

" I was just wondering if you "

 

E------------------------------------------------------------

B----------------------------------------------------------

G----------------------------------------------------------

D---3---8---7---5---3---8---7---5---3--------------------

A---3---8---7---5---3---8---7---5---3----------------------

E---1---6---5---3---1---6---5---3---1----------------------

 

 

 

Here's another version from Jeremy Meredith:

 

Lots of rhythm and muting similar to Warehouse

 

E--------------------------------------------------- >

B--------------------------------------------------- >

G--------------------------------------------------- > Repeat

D--------------------------------------------------- >

A---x--x---12-12--x--x----10-10---x--x---x--x------- >

E---10-10---------13-13---x--x----12-12--13-13-12--- >

 

 

Chorus:

 

E--------------------------------------------------- >

B-----------------6--------------------------------- >

G---2------5------5------5---5---------------------- > Repeat

D---3------5------3------5---5---------------------- >

A---x------3------x------x---3---------------------- >

E---1-------------5------3-------------------------- >

 

 

 

 

Here's another from Dave Silverstone (idiotking@jhu.edu):

 

okay, from the front row in Roanoke, right in front of Dave, this is what it

looked like, and it sounds right. The album sounds busier 'cause tim's

playing pretty heavy in there too.

 

e-|---------------

B-|---------------

G-|---2-----------

D-|-----3-5-2-3-2-

A-|-5-------------

E-|---------------

 

Rory's version sounds pretty close to tim's part, i think. but what do i

know, i'm just a bassist. speaking of which, if anyone has a spare

5-string laying around so i can do all of BCTS, do let me know... :)

 

 

 

Here's another version from Douglas Thompson:

 

 

-------------------------[----------------------------------------

-------------------------[----------------------------------------

-------------------------[----------------------------------------

-0--7-7-3-3-5-5-2-3-2-0--[-0---7-7-3-3-5-5-2-3-2-0----------------

-------------------------[-0-0-0-0-0-0-0-0-0-0-0-0----------------

-------------------------[----------------------------------------

 

Verses

---0-----------0------3-------------------------------------------

---3-----3-----3------3-----1-------------------------------------

---2-----3-----2------0-----0-------------------------------------

---0-----3-----0------0-----2-------------------------------------

---0-----1-----0------2-----3-------------------------------------

----------------------3-------------------------------------------

Dsus2 Bb Dsus2 G C

 

Change on WORDS IN BIG PRINT IN THE ORDER OF VERSES

 

Dsus2 Bb Dsus2 G C

i've this CREE PING suspicion that THINGS are NOT as they SEEM

 

Dsus2 Bb Dsus2 G C

reaSSURE ME why do i FEEL as if I'M in tOO DEEP

 

 

Chorus

---1---0---1------------------------------------------------------

---1---1---3------------------------------------------------------

---2---2---2------------------------------------------------------

---3---2---0------------------------------------------------------

---3---0----------------------------------------------------------

---1--------------------------------------------------------------

F Am Dm

 

F Am Dm

i was just WONDering if YOU'D come aLONG

 

F Am Dm

hold up my HEAD when my HEAD won't hoLD ON

 

F Am Dm

i'll do the SAME if the SAMES what you WANT

 

Dsus2

if not i'll GO alone

 

 

 

Return to my to my DMB tabs page

The Tablature is Copyright its respective owners.

Sign Up For My Newsletter
Subscribe | Unsubscribe

Site Map | Disclaimer | Privacy Policy | Media Kit | Submissions/Corrections

Website © 2000-2014 mattsmusicpage.com. All rights reserved.

Legal & DMCA: Matt's Music Page has been providing lyrics and tabs in a legal way, paying royalties each year to a few organizations. Then, all lyrics and tabs were removed from the site. Now, there's a new owner to the site, which purchased it August 26, 2014, and he is in negotiation to obtain licensing from BMI at the moment. If you have a specific DMCA request -- please do not hesitate to contact me via the contact button on top. I will do my very best to keep this site fully legal.

Get our toolbar!