Your One-Stop Source For
Music Lyrics
Bass and Guitar Tabs
and More...
Music Lyrics Bass and Guitar Tabs

 

The Tabs Are Below

Learn To Read Tab
Chords Handbook
Corrections & Additions
Get Official Tab
DMB tabs @ 911Tabs

tabbed by jhp4c2@mizzou.edu

 

 

So Right

 

E------------------------------ -----------------

B------------------------------ -----------------

G--6h7-7--6--7--6--7----------- --6-6-6h7--------

D--7h9-9--7--9--7--9----------- -----------------

A--x---x--x--x--x--x----------- -----------------

E----------------------7-7-7-7- -----------------

 

 

“Stay up and make so memories…”

E-------------------------------------------

B--3--3--3--3---3----3--3--3--3--3----------

G--2--0--4--2---0----2--0--4--2--0----------

D--0--0--4--0---0----0--0--4--0--0----------

A-----2--2--0---2-------2--2--0—-2----------

E-----3-----2---3-------3-----2--3----------

 

 

 

“I’m going crazy…”

E------------------------------

B------------------------------

G---------2--------2-----------

D--2---4--2--2--4--2-----------

A--2---4--0--2--4--0-----------

E--0---2-----0--2--------------

 

 

Return to my to my DMB tabs page

The Tablature is Copyright its respective owners.

Sign Up For My Newsletter
Subscribe | Unsubscribe

Site Map | Disclaimer | Privacy Policy | Media Kit | Submissions/Corrections

Website © 2000-2014 mattsmusicpage.com. All rights reserved.

Legal & DMCA: Matt's Music Page has been providing lyrics and tabs in a legal way, paying royalties each year to a few organizations. Then, all lyrics and tabs were removed from the site. Now, there's a new owner to the site, which purchased it August 26, 2014, and he is in negotiation to obtain licensing from BMI at the moment. If you have a specific DMCA request -- please do not hesitate to contact me via the contact button on top. I will do my very best to keep this site fully legal.

Get our toolbar!