Your One-Stop Source For
Music Lyrics
Bass and Guitar Tabs
and More...
Music Lyrics Bass and Guitar Tabs

 

The Dave Matthews Band Guitar Tabs Are Below

Learn To Read Tab
Chords Handbook
Corrections & Additions
Get Official Tab
DMB tabs @ 911Tabs

SEVEN- DAVE MATTHEWS BAND

Off the new album: Big Whiskey and the Groogrux King

 

Drop D tuning- DADGBE

 

 

I'm not even going to bother telling you the rhythmn...because it's quite odd. I advise

listen to this song and know it before you start to learn it. If you know the song,

realize how he plays this. And a bit of advice: when you're playing this, at parts

want to pause, but he never really pauses during the song...which is why the rhythm is so weird.

 

 

Intro:

 

e------------------|

B------------------| (REPEAT 4 TIMES)

G------------------|

D------5---8-7---5-|

A--5-5-5-5-5-5-5-5-|

D--5-5-5-5-5-5-5-5-|

 

 

Verse:

 

e----------------------------------------------------------------------|

B----------------------------------------------------------------------|

G----------------------------------------------------------------------|

D------5p0------------5p0------------5p0-------------5p0---------------|

A----------2-3-5----------2-3-5----------2-3-5-----------2-3-5---------|

D--5-5------------5-5------------3-3------------3-3--------------------|

 

 

e----------------------------------------------------------------------|

B----------------------------------------------------------------------|

G----------------------------------------------------------------------|

D------5p0-------------5p0-------------5p0-------------5p0-------------|

A----------2-3-5-----------2-3-5------------2-3-5----------5-2-3-5-----|

D--2-2--------------2-2-------------5-5-------------5-5----------------|

 

REPEAT 4 times

 

 

Then:

 

e----------------------------------------------------------------------|

B----------------------------------------------------------------------|

G----------------------------------------------------------------------|

D--5-5-5-5-5-5-5-5-5--5-5-5-5-5-5-5-5----------------------------------|

A--5-5-5-5-5-5-5-5-5--5-5-5-5-5-5-5-5----------------------------------|

D--5-5-5-5-5-5-5-5-5--5-5-5-5-5-5-5-5----------------------------------|

 

 

Then:

 

e----------------------------------------------------------------------|

B----------------------------------------------------------------------|

G---------------4-5-----------------4h5p4------------------------------|

D------5p0----------------5p0------------------------------------------|

A----------------------------------------------------------------------|

D--5-5------3-3------2-2--------3-3------------------------------------|

 

 

Then:

 

e----------------------------------------------------------------------|

B----------------------------------------------------------------------|

G----------------------------------------------------------------------|

D------5p0------------5p0------------5p0-------------5p0---------------|

A----------2-3-5----------2-3-5----------2-3-5-----------2-3-5---------|

D--5-5------------5-5------------3-3------------3-3--------------------|

 

 

e----------------------------------------------------------------------|

B----------------------------------------------------------------------|

G----------------------------------------------------------------------|

D------5p0-------------5p0-------------5p0-------------5p0-------------|

A----------2-3-5-----------2-3-5------------2-3-5----------5-2-3-5-----|

D--2-2--------------2-2-------------5-5-------------5-5----------------|

 

REPEAT 2 times

 

Then:

 

e------------------|

B------------------| (REPEAT 4 TIMES)

G------------------|

D------5---8-7---5-|

A--5-5-5-5-5-5-5-5-|

D--5-5-5-5-5-5-5-5-|

 

 

Then:

 

e----------------------------------------------------------------------|

B----------------------------------------------------------------------|

G----------------------------------------------------------------------|

D------5p0------------5p0------------5p0-------------5p0---------------|

A----------2-3-5----------2-3-5----------2-3-5-----------2-3-5---------|

D--5-5------------5-5------------3-3------------3-3--------------------|

 

 

e----------------------------------------------------------------------|

B----------------------------------------------------------------------|

G----------------------------------------------------------------------|

D------5p0-------------5p0-------------5p0-------------5p0-------------|

A----------2-3-5-----------2-3-5------------2-3-5----------5-2-3-5-----|

D--2-2--------------2-2-------------5-5-------------5-5----------------|

 

Even though it doesn’t sound like it at first…Dave is playing this.

He repeats it a few times…not sure how many.

 

Then:

 

e------------------|

B------------------| (REPEAT 4 TIMES)

G------------------|

D------5---8-7---5-|

A--5-5-5-5-5-5-5-5-|

D--5-5-5-5-5-5-5-5-|

 

 

He plays this till it trains off:

 

 

e----------------------------------------------------------------------|

B----------------------------------------------------------------------|

G---------------4-5-----------------4h5p4------------------------------|

D------5p0----------------5p0------------------------------------------|

A----------------------------------------------------------------------|

D--5-5------3-3------2-2--------3-3------------------------------------|

Click here to return to my DMB Guitar Tabs page

The Dave Matthews Band Guitar Tablature is Copyright its respective owners.

Sign Up For My Newsletter
Subscribe | Unsubscribe

Site Map | Disclaimer | Privacy Policy | Media Kit | Submissions/Corrections

Website © 2000-2014 mattsmusicpage.com. All rights reserved.

Legal & DMCA: Matt's Music Page has been providing lyrics and tabs in a legal way, paying royalties each year to a few organizations. Then, all lyrics and tabs were removed from the site. Now, there's a new owner to the site, which purchased it August 26, 2014, and he is in negotiation to obtain licensing from BMI at the moment. If you have a specific DMCA request -- please do not hesitate to contact me via the contact button on top. I will do my very best to keep this site fully legal.

Get our toolbar!