Your One-Stop Source For
Music Lyrics
Bass and Guitar Tabs
and More...
Music Lyrics Bass and Guitar Tabs

 

The Tabs Are Below

Learn To Read Tab
Chords Handbook
Corrections & Additions
Get Official Tab
DMB tabs @ 911Tabs

Seek Up

By: Dave Matthews Band

Transcribed by: John Athadye

bobo@nancies.org

 

The chord changes in this song are very unorthodox as in finger patters by playing the fifth, seventh and octave notes insead of resting on the normal root of the chord. Instead Dave allows the bass to pull teh roots out whil he fiddles around on the guitar neck. During the bridge, all the chords are played in the open position.

 

Intro -

 

E---------------------------|

B---------------------------|

G---------------------------|

D-----10-10----12--10-------|

A--12-------12---------12---|

E---------------------------|

 

Fall Back Again.... (and chorus later)

 

e---------------------------------------------------------------|

B---------------------------------------------------------------|

G---------------------------------------------------------------|

D------8-8---10--------10-10--12----------10-10----12--10-------|

A----8-----8----8---10-----10----10----/12-------12---------12--|

E---(6)--------(6)-(/8)----------(8)----------------------------|

 

Verse

Dm C Dm

e---------------------------:|----------------------:|-------------------|

B---------------------------:|----------------------:|-------------------|

G---------------------------:|----------------------:|-------------------|

D-------10-10----12--10-----:|-----9--9--12---------:|-10-10----12--10---|

A---/12-------12---------12-:|--10-----10---10--/12-:|-------12--------12|

E---------------------------:|----------------------:|-------------------|

 

Bridge

 

A Bm G A

"You seek up an emotion and your cup is overflowing..."

 

(next few similar)

 

A Bm G A (ha ha... ha ha...) Bm walk up the bass

 

Bass (on Low E string if you want)

 

E----5----6----8----10-----

 

Random Tim part druing song

 

Verse

E----0-----0----|

B------6-----6--|

G--7-----7------|

D---------------|

A---------------|

E---------------|

 

Chorus

E----0-----0----|----0-----0----|----0-----0----|----0-----0----:|

B------3-----3--|------5-----5--|------6-----6--|------6-----6--:|

G--3-----3------|--5-----5------|--7-----7------|--7-----7------:|

D---------------|---------------|---------------|---------------:|

A---------------|---------------|---------------|---------------:|

E---------------|---------------|---------------|---------------:|

 

 

Return to my to my DMB tabs page

The Tablature is Copyright its respective owners.

Sign Up For My Newsletter
Subscribe | Unsubscribe

Site Map | Disclaimer | Privacy Policy | Media Kit | Submissions/Corrections

Website © 2000-2014 mattsmusicpage.com. All rights reserved.

Legal & DMCA: Matt's Music Page has been providing lyrics and tabs in a legal way, paying royalties each year to a few organizations. Then, all lyrics and tabs were removed from the site. Now, there's a new owner to the site, which purchased it August 26, 2014, and he is in negotiation to obtain licensing from BMI at the moment. If you have a specific DMCA request -- please do not hesitate to contact me via the contact button on top. I will do my very best to keep this site fully legal.

Get our toolbar!