Your One-Stop Source For
Music Lyrics
Bass and Guitar Tabs
and More...
Music Lyrics Bass and Guitar Tabs

 

The Tabs Are Below

Learn To Read Tab
Chords Handbook
Corrections & Additions
Get Official Tab
DMB tabs @ 911Tabs

 

GROUP: DAVE MATTHEWS BAND

SONG: SATELLITE

 

This song is good. Play it on an acoustic. It might be a little tough for beginners.

 

INTRO- PLAY THIS LICK THREE TIMES

|-------------------------------------|

|-------------------------------------|

|-------------------------------------|

|-------8-----6-----5-----------6-----|

|----6-----4--------------8--4--------|

|-4--------------8-----6-----------8--|

 

PLAY ONCE

|----------------------|

|----------------------|

|----------------------|

|-------8-----6-----5--|

|----6-----4-----------|

|-4--------------8-----|

 

RIFF 1- PLAY 12 TIMES

HIGH E |----4--6p4--|

B |-4----------|

 

PLAY TWICE THEN GO BACK TO RIFF 1 FOR 2 TIMES AND THEN DO THIS ONE ONCE

HIGH E |-6--4--3-----4-|

B |----------6----|

 

VERSE

|---------------------------|

|-4--2--4--6--4-------------|

|-5--3--5--6--3--6--5--3--5-|

|----------------6--5--3--6-|

|---------------------------|

|---------------------------|

 

THAT'S SOME OF IT. IF YOU WANT THE REST E-MAIL JoBOBfred@AOL.COM

SOMEONE SHOULD PUT UP SOME ZAPPA TAB.

 

 

Return to my to my DMB tabs page

The Tablature is Copyright its respective owners.

Sign Up For My Newsletter
Subscribe | Unsubscribe

Site Map | Disclaimer | Privacy Policy | Media Kit | Submissions/Corrections

Website © 2000-2014 mattsmusicpage.com. All rights reserved.

Legal & DMCA: Matt's Music Page has been providing lyrics and tabs in a legal way, paying royalties each year to a few organizations. Then, all lyrics and tabs were removed from the site. Now, there's a new owner to the site, which purchased it August 26, 2014, and he is in negotiation to obtain licensing from BMI at the moment. If you have a specific DMCA request -- please do not hesitate to contact me via the contact button on top. I will do my very best to keep this site fully legal.

Get our toolbar!