Your One-Stop Source For
Music Lyrics
Bass and Guitar Tabs
and More...
Music Lyrics Bass and Guitar Tabs

 

The Tabs Are Below

Learn To Read Tab
Chords Handbook
Corrections & Additions
Get Official Tab
DMB tabs @ 911Tabs

 

DMB

Rhyme and Reason

mantra123@hotmail.com

 

verse/intro

 

 

 

------------------------------------------

 

------------------------------------------

 

--------------------------------9----10---

 

-------3--------5---------7---------------

 

--5---------6---------8-------------------

 

----5---------6---------8-----8----6------

 

 

 

chorus(strum each chord right amount of time)

 

 

 

-----------------------------------------

 

-----------------------------------------

 

-----------------------------------------

 

--5------5-------3------5----------------

 

---------3-------1-----------------------

 

--3---------------------5----------------

 

 

 

thats the whole song

 

 

 

Return to my to my DMB tabs page

The Tablature is Copyright its respective owners.

Sign Up For My Newsletter
Subscribe | Unsubscribe

Site Map | Disclaimer | Privacy Policy | Media Kit | Submissions/Corrections

Website © 2000-2014 mattsmusicpage.com. All rights reserved.

Legal & DMCA: Matt's Music Page has been providing lyrics and tabs in a legal way, paying royalties each year to a few organizations. Then, all lyrics and tabs were removed from the site. Now, there's a new owner to the site, which purchased it August 26, 2014, and he is in negotiation to obtain licensing from BMI at the moment. If you have a specific DMCA request -- please do not hesitate to contact me via the contact button on top. I will do my very best to keep this site fully legal.

Get our toolbar!