Your One-Stop Source For
Music Lyrics
Bass and Guitar Tabs
and More...
Music Lyrics Bass and Guitar Tabs

 

The Tabs Are Below

Learn To Read Tab
Chords Handbook
Corrections & Additions
Get Official Tab
DMB tabs @ 911Tabs

 

"Recently" by Dave Matthews Band

from the album "Remember Two Things"

 

Intro:

 

E|---------------------------------------------------|

B|-6----5----3----2----5----3------------------------|

G|-7----5----4----2----5----4---------------------0--|

D|-7----5----4----2----7----5------7-----9------4----|

A|-5----3----2----0----7----5---/5-----7------2------|

E|---------------------5----3------------------------|

 

{Hint: use barre chord positions-it makes it a lot easier to play}

 

E|---------------------------------------------------------------3-|

B|---------------------------------------------------------------3-|

G|---4-----5---------4-----5-5-5-5-4---4-----5-3h4-2-0-----------0-|

D|-----0-3-----5-5-----0-3---5-5-5-5-----0-3-5-3h4-2-0---------0-0-|

A|-----------3---------------3-3-3-3-------------------5/7\5-3---3-|

E|-3---------------3-----------------3---------------------------2-|

 

Pre-Verse 1: (w/ Rhythm Fig. 1 8 times)

 

********************************************************************

Rhythm Fig. 1 Rhythm Fill 1

 

E|-----------------| sometimes though E|--------------------|

B|-----------------| Dave does this riff B|--------------------|

G|---4-----5-------| at the end of the G|---4-----5-5-5-5-4--|

D|-----0-3-----5-5-| the fourth time D|-----0-3---5-5-5-5--|

A|-----------3-----| -----------> A|-----------3-3-3-3--|

E|-3---------------| E|-3------------------|

 

********************************************************************

 

Verse 1: (w/ Rhythm Fig. 1 8 times)

 

Chorus 1: (w/ Rhythm Fig 1 7 times)

 

Pre-Verse 2: (w/ Rhythm Fig. 1 4 times)

 

Verse 2: (w/ Rhythm Fig. 1 8 times)

 

Chorus 2: (w/ Rhythm Fig. 2 2 times)

 

********************************************************************

Rhythm Fig. 2

 

E|-2----5----5----3-----------------|

B|-3----5----5----3-----------------|

G|-4----6----5----4---------------0-|

D|-4----7----7----5-----7---9---4---|

A|-2----7----7----5--/5---7---2-----|

E|------5----5----3-----------------|

 

********************************************************************

 

Also add the following ending:

 

Rhythm Fill 2

 

E|------------------------------------------------------------|

B|------------------------------------------------------------|

G|---4-----5---------4-----5---------4------------------------|

D|-----0-3-----5-5-----0-3-----5-5-----0-3----------/3--------|

A|-----------3---------------3-------------3-----------3-5----|

E|-3---------------3---------------3---------6-5-3---------3--|

 

Verse 3: (w/ Rhythm Fig. 1 8 times)

 

Chorus 3: (w/ Rhythm Fig. 2 2 times)

 

Also add the following:

 

E|-----------------------|

B|-----6-----------------|

G|-----4--------5--------| repeat 4 times

D|---------3--3-------3--|

A|----------------3h5----|

E|-3---------------------|

 

*Repeat Chorus as before*

 

Violin & Sax Solos: (w/ Rhythm Fig 3 8 times)

 

********************************************************************

Rhythm Fig. 3

 

E|--------------------------|

B|--------------------------|

G|--------------------------|

D|-----------------/3-------|

A|--------3--5--------3--5--|

E|--3--5--------3-----------|

 

********************************************************************

 

Pre-Verse 4: (w/ Rhythm Fig. 3 4 times)

 

Verse 4: (w/ Rhythm Fig. 3 3 times)

 

Chorus 4: (w/ Rhythm Fig. 3 8 times)

 

Bass Solo: (no guitar)

 

Violin & Sax Solos: (w/ Rhythm Fig 4 4 times)

 

********************************************************************

Rhythm Fig. 4

 

E|-3---3--3--3------3---3--3--3--3--|

B|-3---3--3--3------3---3--3--3--3--|

G|-4h5-5--4--0------4h5-5--4--0--4--|

D|----------------------------------|

A|----------------------------------|

E|----------------------------------|

********************************************************************

 

Intro to Jam:

 

********************************************************************

Rhythm Fig. 5 Rhythm Fill 3

 

E|----------------------| |--12--|

B|----------------------| |--11--|

G|----------------------| |--12--|

D|------5-x-3-x-3-----3-| |------|

A|----------------3h5---| |------|

E|--3-3-----------------| |------|

 

********************************************************************

 

Rhythm Fig. 5 (4 times) w/ Rhythm Fill 3 (1 time)

 

Rhythm Fig. 5 (4 times) w/ Rhythm Fill 3 (2 times)

 

Rhythm Fig. 5 (4 times) w/ Rhythm Fill 3 (3 times)

 

Rhythm Fig. 5 (4 times) w/ Rhythm Fill 3 (4 times)

 

 

G9

E|--10--|

B|--10--|

G|--10--| (strum really fast)

D|---9--|

A|--10--|

E|------|

 

Jam Session: (mimicking bass guitar)

 

E|-------------------------------------------------|

B|-------------------------------------------------|

G|-------------------------------------------------| repeat 6+1/2 times

D|-------------------------------------------------|

A|----------------------------------------1--0-----|

E|-3--0--1--2--3--0--1--2--3--0--1--2--3--------4--|

 

Back to pre-verse

 

E|---------------|

B|---------------|

G|-10--9---------|

D|-10--9--10--8--|

A|-8---7--10--8--|

E|--------8---6--|

 

Rhythm Fig. 1 (4 times)

 

Pre-Verse 5: (w/ Rhythm Fig. 3 2 times)

 

Verse 5: (w/ Rhythm Fig. 3 8 times)

 

Bas only (guitar tacet)

 

Chorus 5: (w/ Rhythm Fig. 2 2 times: add Rhythm Fill 2)

 

End on G

 

That's the whole song from start to finish as it was on

"Remember Two Things"- I hope you enjoyed it! I will be posting

other DMB songs in the near future sobe on the look out for them.

Also, in case you haven't gotten it yet there's a version of

"Ants Marching" in the AOL Music & Sound Text Files too. If you

have any suggestions, comments, or questions feel free to email me.

Thanx!

 

 

Return to my to my DMB tabs page

The Tablature is Copyright its respective owners.

Sign Up For My Newsletter
Subscribe | Unsubscribe

Site Map | Disclaimer | Privacy Policy | Media Kit | Submissions/Corrections

Website © 2000-2014 mattsmusicpage.com. All rights reserved.

Legal & DMCA: Matt's Music Page has been providing lyrics and tabs in a legal way, paying royalties each year to a few organizations. Then, all lyrics and tabs were removed from the site. Now, there's a new owner to the site, which purchased it August 26, 2014, and he is in negotiation to obtain licensing from BMI at the moment. If you have a specific DMCA request -- please do not hesitate to contact me via the contact button on top. I will do my very best to keep this site fully legal.

Get our toolbar!

 

BRAND NEW KEY OF C HOHNER MINI HARMONICA HARP KEYRING KEYCHAIN KEY RING CHAIN
$8.21
BRAND NEW KEY OF C HOHNER MINI HARMONICA HARP KEYRING KEYCHAIN KEY RING CHAIN picture


RISING SONS BAND *2X3 FRIDGE MAGNET* VOCALS GUITAR MANDOLIN DOBRO HARMONICA SONG
$3.99
RISING SONS BAND *2X3 FRIDGE MAGNET* VOCALS GUITAR MANDOLIN DOBRO HARMONICA SONG picture


Vtg Christmas Angel Baby Girl W Harmonica Boy W Book SET OF 2 W GOLD WINGS
$125.0
Vtg Christmas Angel Baby Girl W Harmonica Boy W Book SET OF 2 W GOLD WINGS  picture


Beautiful Hand Carved Jewelry Trinket Jewelry Box Harmonica Case Bone And Brass
$14.5
Beautiful Hand Carved Jewelry Trinket Jewelry Box Harmonica Case Bone And Brass picture


BRAND NEW* HOHNER BOB DYLAN SIGNATURE LIMITED EDITION HARMONICA COLLECTORS ITEM
$140.19
BRAND NEW* HOHNER BOB DYLAN SIGNATURE LIMITED EDITION HARMONICA COLLECTORS ITEM picture