Your One-Stop Source For
Music Lyrics
Bass and Guitar Tabs
and More...
Music Lyrics Bass and Guitar Tabs

 

The Tabs Are Below

Learn To Read Tab
Chords Handbook
Corrections & Additions
Get Official Tab
DMB tabs @ 911Tabs

One Sweet World

By: Dave Matthews Band

Transcribed by: Sean Spicer

driver8@phy.duke.edu

 

 

(old intro)

e-----------------------------------------------------------------------

B------4--------6-------------4-----------------------------------------

G---------3--------3----0--------0^1^0--------3--0----------------------

D------------------------------------------3--------------3--------3----

A---6--------5-------5-----3------------1--------------3-----3----------

E---------------------------------------------------4-----------5-----5-

 

 

e-----------------------------------------------------------------------

B-----------------------------------------------------------------------

G---------------------4-5------3----------------------------------------

D---------5--------7--------------3-0-------3-0--------3----------------

A------5-----5---------------------------3----------3-----6-------6--8--

E---8-----------7-----------6---------1----------4-----------6--8-------

 

 

After fingerpicking

 

 

repeat a few times------------> on the last time keep on

e---------------------------------strumming the "A" chord-------

b---------------------------------------------------------------

g-8--7--5-------------5>7---7--5--------------------------------

d----8--6---------3>5----------6--------------------------------

a-------------5-3-----------------------------------------------

e-8--6--4---4-------------6-6--4--------------------------------

 

Verses

e---------------------------------------------------------------

b---------------------------------------------------------------

g-----8-7--8>10-10-xxx-xx---------------------------------------

d-----8-8--8>10-10-xxx-xx--and repeat---------------------------

a---6--------------xxx-xx---------------------------------------

e---------6-----------------------------------------------------

 

so let us sleep.... lay down

 

e---------------------------------------------------------------

b---------------------------------------------------------------

g--------5>7---7--5--7-----------5>7---7--5---------------------

d----3>5----------6--8--------3>5---------6--hold and strum-----

a--3------------------------3-----------------------------------

e------------6-6--4--6---------------6-6--4---------------------

 

take all that we can get one big stone

 

e---------------------------------------------------------------

b--------------6--8---------------------8----6------------------

g--8--7--8-----7--8--7-----8--7--5------8----7------------------

d-----8--------------8--------8--6------------------------------

a--------------5--6-----------------4>6-6--5-5------------------

e--8--6--8-----------6-----8--6--4------------------------------

 

"nobody left to" is like "so let us sleep".

 

 

Return to my to my DMB tabs page

The Tablature is Copyright its respective owners.

Sign Up For My Newsletter
Subscribe | Unsubscribe

Site Map | Disclaimer | Privacy Policy | Media Kit | Submissions/Corrections

Website © 2000-2014 mattsmusicpage.com. All rights reserved.

Legal & DMCA: Matt's Music Page has been providing lyrics and tabs in a legal way, paying royalties each year to a few organizations. Then, all lyrics and tabs were removed from the site. Now, there's a new owner to the site, which purchased it August 26, 2014, and he is in negotiation to obtain licensing from BMI at the moment. If you have a specific DMCA request -- please do not hesitate to contact me via the contact button on top. I will do my very best to keep this site fully legal.

Get our toolbar!