Your One-Stop Source For
Music Lyrics
Bass and Guitar Tabs
and More...
Music Lyrics Bass and Guitar Tabs

 

The Tabs Are Below

Learn To Read Tab
Chords Handbook
Corrections & Additions
Get Official Tab
DMB tabs @ 911Tabs

This is the sole work of Chris Kepner. It is not complete. I haven't had a

chance to play it yet, but it looks ok to me.

intro

intro

E------------------------------------------

B--8--7--7-8--8h10p8--8--7h8p7-------------

G--9---------------------------------------

D--9---------------------------------------

A--7---------------------------------------

E------------------------------------------

 

 

E-----------------------------------7-7--5---------------------------

B--7---7--7--8--7--5---5---5------------8--7---8---7---8-------------

G--9-----------------------5-------------------------9---9---9-------

D--9-----------------------7-------------------------9---9---9-------

A--7-----------------------7-------------------------7---7---7-------

E--------------------------------------------------------------------

 

verse

E-----7-------------------7------------------7-----------7-------

B---8---8---------------8---8--------------8---8-7-----8----8-7--

G-9-------8h9p8------9--------8h9p8------9----------9------------

D---------------10-9-----------------10--------------------------

A----------------------------------------------------------------

E----------------------------------------------------------------

 

 

cool little lick that starts at first chorus and continues through second verse

E--------------------x-x-x-x-x-x-x--------------------x-x-x-x-x-x-x--

B--------------------x-x-x-x-x-x-x--------------------x-x-x-x-x-x-x--

G--------5-----4---x-x-x-x-x-x-x---------5-----4---x-x-x-x-x-x-x-----

D---(5)-----7------x-x-x-x-x-x-x----(5)-----7------x-x-x-x-x-x-x-----

A--------------------------------------------------------------------

E--------------------------------------------------------------------

 

 

first and second breaks (santana's solos)

E------------------------------------------------------

B----8--7-----7----------8--7-----7--------------------

G-----------9-----7--9----------9-----7--9-------------

D------------------------------------------------------

A------------------------------------------------------

E------------------------------------------------------

 

 

Return to my to my DMB tabs page

The Tablature is Copyright its respective owners.

Sign Up For My Newsletter
Subscribe | Unsubscribe

Site Map | Disclaimer | Privacy Policy | Media Kit | Submissions/Corrections

Website © 2000-2014 mattsmusicpage.com. All rights reserved.

Legal & DMCA: Matt's Music Page has been providing lyrics and tabs in a legal way, paying royalties each year to a few organizations. Then, all lyrics and tabs were removed from the site. Now, there's a new owner to the site, which purchased it August 26, 2014, and he is in negotiation to obtain licensing from BMI at the moment. If you have a specific DMCA request -- please do not hesitate to contact me via the contact button on top. I will do my very best to keep this site fully legal.

Get our toolbar!