Your One-Stop Source For
Music Lyrics
Bass and Guitar Tabs
and More...
Music Lyrics Bass and Guitar Tabs

 

The Tabs Are Below

Learn To Read Tab
Chords Handbook
Corrections & Additions
Get Official Tab
DMB tabs @ 911Tabs

tabbed by jhp4c2@mizzou.edu

 

Intro:

E--5-5--5--5-------5-5--5--5-------

B--6-6--5--6-------6-6--5--6-------

G--7-7--5--7--5h7--7-7--5--7-------

D----------------------------------

A----------------------------------

E----------------------------------

 

 

 

The bass does this mostly:

E-------------------------------

B-------------------------------

G-------------------------------

D-------------------------------

A--3--4--5----------------------

E-------------------------------

 

"He's crazy crazy..."

E---------------

B-----------2---

G--3--3--1--2---

D--0--3--2--2---

A--1--1--2--0---

E--3-----4------

 

 

Jam after "..what do you think you're doing.."

E----------------------------------------------

B-------2-------------2---------2-----------2--

G--2----2----3--3--1--2-0--2----2----3--3-1-2--

D--3----2----0--3--2--2-0--3----2----0--3-2-2--

A--3----0----1--1--2--0-2--3----0----1--1-2-0--

E--1---------3-----4----3--1---------3----4----

 

 

-or-

Jam after "..what do you think you're doing.."

E--------------------------------

B--------------------------------

G--2----6----3--------------2---- etc

D--3----7----0--8--6--7--5--3----

A--3----7----1--8--7--7--5--3----

E--1---/5----3--6--4--5--3--1----

 

 

 

Return to my to my DMB tabs page

The Tablature is Copyright its respective owners.

Sign Up For My Newsletter
Subscribe | Unsubscribe

Site Map | Disclaimer | Privacy Policy | Media Kit | Submissions/Corrections

Website © 2000-2014 mattsmusicpage.com. All rights reserved.

Legal & DMCA: Matt's Music Page has been providing lyrics and tabs in a legal way, paying royalties each year to a few organizations. Then, all lyrics and tabs were removed from the site. Now, there's a new owner to the site, which purchased it August 26, 2014, and he is in negotiation to obtain licensing from BMI at the moment. If you have a specific DMCA request -- please do not hesitate to contact me via the contact button on top. I will do my very best to keep this site fully legal.

Get our toolbar!