Your One-Stop Source For
Music Lyrics
Bass and Guitar Tabs
and More...
Music Lyrics Bass and Guitar Tabs

 

The Tabs Are Below

Learn To Read Tab
Chords Handbook
Corrections & Additions
Get Official Tab
DMB tabs @ 911Tabs

Long Black Veil

By: Dill, Danny and Wilkin, Marijohn

Transcribed by: Brian Yee

brian80@usa.net

 

 

--------------------------------------------

--------------------------------------------

-------------9-----------9------------------ 4X

------------10---12-12--10------------------

--------------------------------------------

-----------8--------------------------------

 

 

-----------------------------------------------

---------------8--8--8--8--8--8----------------

---------------X--X--X--X--X--X----------9-----

---------------9--9--9--9--9--9---------10-----

----------10--10-10-10-10-10-10-------8--------

-----------------------------------------------

D D U U D D

 

 

--------------------------------------------

--------------------------------------------

-------------9-----------9------------------ 4X

------------10---12-12--10------------------

--------------------------------------------

-----------8--------------------------------

 

 

-----------------------------------------------

---------------8--8--8--8--8--8----------------

---------------X--X--X--X--X--X----------9-----

---------------9--9--9--9--9--9---------10-----

----------10--10-10-10-10-10-10-------8--------

-----------------------------------------------

D D U U D D

 

 

 

She walks these hills.......

 

------------X--X---0---0--X--X----------X--X---0---0---0---0---0---0---0---0---0--

------------X--X---1---1--X--X----------X--X---1---1---1---1---1---1---1---1---1--

------------X--X---0---0--X--X----------X--X---0---0---0---0---0---0---0---0---0-- 2X

-----3---3--X--X---2---2--X--X---3---3--X--X---2---2---2---2---2---2---2---2---2--

-----3---3--X--X---3---3--X--X---3---3--X--X---3---3---3---3---3---3---3---3---3--

-----1---1--X--X----------X--X---1---1--X--X--------------------------------------

D D D U U D U D D

 

Nobody knows.......

 

-----------0-------0--

-----------1-------1--

-----------0-------0--

-----------2---3---2--

-----------3---3---3--

---------------1------

 

Return to my to my DMB tabs page

The Tablature is Copyright its respective owners.

Sign Up For My Newsletter
Subscribe | Unsubscribe

Site Map | Disclaimer | Privacy Policy | Media Kit | Submissions/Corrections

Website © 2000-2014 mattsmusicpage.com. All rights reserved.

Legal & DMCA: Matt's Music Page has been providing lyrics and tabs in a legal way, paying royalties each year to a few organizations. Then, all lyrics and tabs were removed from the site. Now, there's a new owner to the site, which purchased it August 26, 2014, and he is in negotiation to obtain licensing from BMI at the moment. If you have a specific DMCA request -- please do not hesitate to contact me via the contact button on top. I will do my very best to keep this site fully legal.

Get our toolbar!