Your One-Stop Source For
Music Lyrics
Bass and Guitar Tabs
and More...
Music Lyrics Bass and Guitar Tabs

 

The Tabs Are Below

Learn To Read Tab
Chords Handbook
Corrections & Additions
Get Official Tab
DMB tabs @ 911Tabs

You have got to check this out....it was done live and unrelased but you can find it on the music program kazaa....its the original dont drink the water...took me a little while to get the tune but your like it.

Drop D Tuning

Intro

------------------------------------------------------------------------------

------------------------------------------------------------------------------

-5/7--11---9---7---5/7--------------------------------------------------------

-x-x---x---x---x---x-x--------------------------------------------------------

-3/5--/9---7---5---3/5--------------------------------------------------------

-0-0---0---0---0---0-0------------------------------------------------------0-

 

Verses

------------------------------------------------------------------------------

------------------------------------------------------------------------------

-5/7--7----5/7--11---9---7---7-7----------------------------------------------

-x-x--x----x-x---x---x---x---x-x----------------------------------------------

-3/5--5----3/5--/9---7---5---3/5----------------------------------------------

-0-0--0----0-0---0---0---0---0-0----------------------------------------------

 

Chorus

------------------------------------------------------------------------------

-8----------------------------------------------------------------------------

-7---5/7---11---9---7---7-7---------------------------------------------------

-5---x-x----x---x---x---x-x---------------------------------------------------

-5---3/5---/9---7---5---3/5---------------------------------------------------

-5---0-0----0---0---0---0-0---------------------------------------------------

 

Bridge

------------------------------------------------------------------------------

-----8------------------------------------------------------------------------

-4---7------------------------------------------------------------------------

-4---5------------------------------------------------------------------------

-2---5------------------------------------------------------------------------

-----5------------------------------------------------------------------------

 

Outro

------------------------------------------------------------------------------

------------------------------------------------------------------------------

-7---7------------------------------------------------------------------------

-x---8------------------------------------------------------------------------

-5---5------------------------------------------------------------------------

-0---0------------------------------------------------------------------------

 

Questions and comments send to Philkelley69@hotmail.com

 

 

Return to my to my DMB tabs page

The Tablature is Copyright its respective owners.

Sign Up For My Newsletter
Subscribe | Unsubscribe

Site Map | Disclaimer | Privacy Policy | Media Kit | Submissions/Corrections

Website © 2000-2014 mattsmusicpage.com. All rights reserved.

Legal & DMCA: Matt's Music Page has been providing lyrics and tabs in a legal way, paying royalties each year to a few organizations. Then, all lyrics and tabs were removed from the site. Now, there's a new owner to the site, which purchased it August 26, 2014, and he is in negotiation to obtain licensing from BMI at the moment. If you have a specific DMCA request -- please do not hesitate to contact me via the contact button on top. I will do my very best to keep this site fully legal.

Get our toolbar!