Your One-Stop Source For
Music Lyrics
Bass and Guitar Tabs
and More...
Music Lyrics Bass and Guitar Tabs

 

The Tabs Are Below

Learn To Read Tab
Chords Handbook
Corrections & Additions
Get Official Tab
DMB tabs @ 911Tabs

The Last Stop

By: Dave Matthews Band

Transcribed by: Mike League

mickmail@juno.com

 

This song has a Middle Eastern feel to it, and is great for jams. The chorus, however, is more pleasant-sounding. Both parts are pretty fast. It works best with two guitars, one playing the F# chord and the other doing the base line. That's all that you need- figure out the solo for yourselves. [I'm lazy.] Have fun with it! It's a really cool song. Write me with any questions or mistakes I made.

 

Main Riff:

Guitar 1 (Strum):

E ---- 2 ---- 2 - 2 -- 2 --- 2 ----

B ---- 2 ---- 2 - 2 -- 2 --- 2 ----

G ---- 3 ---- 3 - 3 -- 3 --- 3 ---- o

D ---- 4 ---- 4 - 4 -- 4 --- 4 ---- o

A ---- 4 ---- 4 - 4 -- 4 --- 4 ----

E ---- 2 ---- 2 - 2 -- 2 --- 2 ----

 

* Guitar 2:

E ---- 2 ------------- 2 ------------------------- 2 ----

B ---- 2 ------------- 2 ------------------------- 2 ----

G ---- 3 ------------- 3 ------------------------- 3 ----

D ---- 4 ------------- 4 ------------------------- 4 ----

A ---- 4 -------1----- 4 ------1--2p1----------1-- 4 ----

E ---- 2 ---2--3--3p2- 2 --2--3 -------3p2--2-3--- 2 ----

 

* If you are the only guitar, this part can carry the song on its own.

 

Riff 2: "This is the last stop"

E ----------------------------------------- 2 ----

B ----------------------------------------- 2 ----

G ----------------------------------------- 3 ----

D ---- 12 - 12 -- 11 - 9 -- 8 ------------- 4 ----

A ---- 12 - 12 -- 11 - 9 -- 8 -------1----- 4 ----

E ---- 10 - 10 --- 9 - 7 -- 6 ---2--3--3p2- 2 ----

 

Bridge: "Righteous..." "...go ahead believe..."

E ---- 0 ----- 2 --- ------------------------------------

B ---- 0 ----- 2 --- ------------------------------------

G ---- 1 ----- 3 --- ------------------------------------

D ---- 2 ----- 4 --- ------------------------------------

A ---- 2 ----- 4 --- -----1-2-1--2-4-5-4---2-1-----------

E ---- 0 ----- 2 --- -2--3-----------------------3h6p3-2-

 

 

Chorus: "Hey, it's more than..."

E ---- 2 ----- 0 ----------------

B ---- 3 ----- 2 ----------------

G ---- 2 ----- 2 ----- 4 --------

D ---- 0 ----- 2 ----- 2 --------

A ------------ 0 ----- x --------

E -------------------- 4 --------

 

Return to my to my DMB tabs page

The Tablature is Copyright its respective owners.

Sign Up For My Newsletter
Subscribe | Unsubscribe

Site Map | Disclaimer | Privacy Policy | Media Kit | Submissions/Corrections

Website © 2000-2014 mattsmusicpage.com. All rights reserved.

Legal & DMCA: Matt's Music Page has been providing lyrics and tabs in a legal way, paying royalties each year to a few organizations. Then, all lyrics and tabs were removed from the site. Now, there's a new owner to the site, which purchased it August 26, 2014, and he is in negotiation to obtain licensing from BMI at the moment. If you have a specific DMCA request -- please do not hesitate to contact me via the contact button on top. I will do my very best to keep this site fully legal.

Get our toolbar!