Your One-Stop Source For
Music Lyrics
Bass and Guitar Tabs
and More...
Music Lyrics Bass and Guitar Tabs

 

The Tabs Are Below

Learn To Read Tab
Chords Handbook
Corrections & Additions
Get Official Tab
DMB tabs @ 911Tabs

tabbed by jhp4c2@mizzou.edu

 

 

Kit kat jam

 

Intro:

E------------------------------------------------------

B------------------------------------------------------

G------------------------------------------------------

D--10--x-10-10—-8—-9--10--10--10--10-------------------

A---8--x--8—-8—-6—-5--/8---8---8---8-------------------

E--------------------------------------8h10h11---------

 

 

Chorus:

E---------------------------------------------------

B---------------------------------------------------

G--7---5-4--------------8-7---5-4-------------------

D--x---x-x---6-5--3-5---x-x---x-x--6-5---3-5--------

A--5---3-2---x-x--x-x---6-5---3-2--x-x---x-x--------

E------------4-3--1-3--------------4-3---1-3--------

 

 

Middle part

E-------------------------------------------------

B-------------------------------------------------

G-------------------------------------------------

D--7--5--4--2-----7--5--4--2----------------------

A--7--5--4--2-----7--5--4--2----------------------

E--5--3--2--0-----5--3--2--0----------------------

 

 

Return to my to my DMB tabs page

The Tablature is Copyright its respective owners.

Sign Up For My Newsletter
Subscribe | Unsubscribe

Site Map | Disclaimer | Privacy Policy | Media Kit | Submissions/Corrections

Website © 2000-2014 mattsmusicpage.com. All rights reserved.

Legal & DMCA: Matt's Music Page has been providing lyrics and tabs in a legal way, paying royalties each year to a few organizations. Then, all lyrics and tabs were removed from the site. Now, there's a new owner to the site, which purchased it August 26, 2014, and he is in negotiation to obtain licensing from BMI at the moment. If you have a specific DMCA request -- please do not hesitate to contact me via the contact button on top. I will do my very best to keep this site fully legal.

Get our toolbar!