Your One-Stop Source For
Music Lyrics
Bass and Guitar Tabs
and More...
Music Lyrics Bass and Guitar Tabs

 

The Tabs Are Below

Learn To Read Tab
Chords Handbook
Corrections & Additions
Get Official Tab
DMB tabs @ 911Tabs

Kit Kat Jam

By: Dave Matthews Band

Transcribed by: Earon Rein

ESRein@hotmail.com

 

 

Intro/Verses:

 

e -----x-----x---

B -----x-----x---

G -----5-----4---

D -----0-----0---

A -----x-----x---

E -----5-----3---

 

PreChorus/Bridge:

 

e ---x---x-----x---x-----x---x-----x---x---

B ---x---x-----x---x-----x---x-----x---x---

G ---8---4-----5---4-----4---4-----2---4---

D ---0---0-----0---0-----0---0-----0---0---

A ---x---x-----x---x-----x---x-----x---x---

E ---7---3-----5---3-----4---3-----1---3---

 

Chorus:

 

e ---x---x---x---x---0---

B ---x---x---x---x---0---

G ---6---4---2---2---1---

D ---0---0---0---0---2---

A ---x---x---x---x---2---

E ---5---3---2---1---x---

 

 

Return to my to my DMB tabs page

The Tablature is Copyright its respective owners.

Sign Up For My Newsletter
Subscribe | Unsubscribe

Site Map | Disclaimer | Privacy Policy | Media Kit | Submissions/Corrections

Website © 2000-2014 mattsmusicpage.com. All rights reserved.

Legal & DMCA: Matt's Music Page has been providing lyrics and tabs in a legal way, paying royalties each year to a few organizations. Then, all lyrics and tabs were removed from the site. Now, there's a new owner to the site, which purchased it August 26, 2014, and he is in negotiation to obtain licensing from BMI at the moment. If you have a specific DMCA request -- please do not hesitate to contact me via the contact button on top. I will do my very best to keep this site fully legal.

Get our toolbar!