Your One-Stop Source For
Music Lyrics
Bass and Guitar Tabs
and More...
Music Lyrics Bass and Guitar Tabs

 

The Tabs Are Below

Learn To Read Tab
Chords Handbook
Corrections & Additions
Get Official Tab
DMB tabs @ 911Tabs

tabbed by jhp4c2@mizzou.edu

 

 

If I had it All

 

Intro:

E-----------5--6/7----------------------

B---------7-----------5------5—-5h7p5---

G—5/6--7-----------------7------x-------

D--------------------------5----7-------

A-------------------7-------------------

E---------------------------------------

 

 

“Sometimes I can’t move my feet…”

E------------------------ ---------3h5-3-2--------

B------------------------ -----------------5--3---

G--------2----------2--4- -------2—---------------

D--2--5--2-------4------- -2--5--2----------------

A--2--5--0—3/4-5--------- -2--5--0----------------

E--0--3------------------ -0--3-------------------

 

 

 

“If I were a king...”

E-------3h5-3-2-----------3h5-3-2------ ----3h5-3-2------

B--1--3---------5-3--2--1---------5-3-- -1-3-------5-3-3-

G--0--4—-------------2--2-------------- -0-4-----------2-

D--2--4--------------2--2-------------- -2-4-----------0-

A--3--2--------------0--0-------------- -3-2-----------0-

E-------------------------------------- -----------------

 

 

“Remembering times…”

E-----------------------------------------------------

B-----------------3-----------------------3-----------

G--0---0--0-2--6--2--0--0--0--0--0--2--6--2-0-0-------

D--0---2--0-0--5--0--2--0--0--2--0--0--5--0-2-0-------

A--2---3--2-0--4-----3--2--2--3--2--0--4----3-2-------

E--3-----------------------3--------------------------

 

chords: G C G/B D/A D A7/C# D C G/B

 

 

Return to my to my DMB tabs page

The Tablature is Copyright its respective owners.

Sign Up For My Newsletter
Subscribe | Unsubscribe

Site Map | Disclaimer | Privacy Policy | Media Kit | Submissions/Corrections

Website © 2000-2014 mattsmusicpage.com. All rights reserved.

Legal & DMCA: Matt's Music Page has been providing lyrics and tabs in a legal way, paying royalties each year to a few organizations. Then, all lyrics and tabs were removed from the site. Now, there's a new owner to the site, which purchased it August 26, 2014, and he is in negotiation to obtain licensing from BMI at the moment. If you have a specific DMCA request -- please do not hesitate to contact me via the contact button on top. I will do my very best to keep this site fully legal.

Get our toolbar!

 

VINTAGE SORRENTO MUSIC JEWELRY BOX
$45.0
VINTAGE SORRENTO MUSIC JEWELRY BOX picture


VINTAGE LACQUERED MUSIC BOX JAPAN
$25.99
VINTAGE LACQUERED MUSIC BOX JAPAN picture


Vintage Kehlsteinhaus Bavaria Germany Colorscope Cow Bell View Master Music Box
$8.99
Vintage Kehlsteinhaus Bavaria Germany Colorscope Cow Bell View Master Music Box picture


VINTAGE SCHMIDT Signed Collectible Musical Turning Clown
$9.99
VINTAGE  SCHMIDT Signed Collectible Musical Turning Clown picture


Vintage - Linen - Postcard - Stage - Radio City Music Hall - New York City
$3.75
Vintage - Linen - Postcard - Stage - Radio City Music Hall - New York City   picture