Your One-Stop Source For
Music Lyrics
Bass and Guitar Tabs
and More...
Music Lyrics Bass and Guitar Tabs

 

The Tabs Are Below

Learn To Read Tab
Chords Handbook
Corrections & Additions
Get Official Tab
DMB tabs @ 911Tabs

I Did It

By: Dave Matthews Band

Transcribed by: Chris Ulrich

CUVault@aol.com

 

 

Intro and Verse:

D D C D E B D D

E :| ---x-x--8/---x--x--x--x---x---x-----|

B :| ---7-7--7/---5--7--9--x---x---x-----|

G :| ---7-7-------5--7--7--9---11--11----|

D :| ---7-7-------5--7--7--10--12--12----|

A :| ---5-5-------3--5--7--10--12--12----|

E :| ----------------------8---10--10----|

 

CHORUS: "I did it.."

A C D

E :| ---x----------------|

B :| ---x----------------|

G :| ---6----------------|

D :| ---7----------------|

A :| ---7------10--12----|

E :| ---5------8---10----|

 

Next Part "I never did a single thing.."

C# F#

E :| -----------------|

B :| -----------------|

G :| ---10-----3------|

D :| ---11-----4------|

A :| ---x------x------|

E :| ---9------2------|

 

Break Down:

 

key of 'A'

E :| -------------------------------------|

B :| -------------------------------------|

G :| -----7-6-----9-6-----7-6-------6-7-9-|

D :| ---7-------6-------7-------7-9-------|

A :| -------------------------------------|

E :| -------------------------------------|

 

 

Return to my to my DMB tabs page

The Tablature is Copyright its respective owners.

Sign Up For My Newsletter
Subscribe | Unsubscribe

Site Map | Disclaimer | Privacy Policy | Media Kit | Submissions/Corrections

Website © 2000-2014 mattsmusicpage.com. All rights reserved.

Legal & DMCA: Matt's Music Page has been providing lyrics and tabs in a legal way, paying royalties each year to a few organizations. Then, all lyrics and tabs were removed from the site. Now, there's a new owner to the site, which purchased it August 26, 2014, and he is in negotiation to obtain licensing from BMI at the moment. If you have a specific DMCA request -- please do not hesitate to contact me via the contact button on top. I will do my very best to keep this site fully legal.

Get our toolbar!