Your One-Stop Source For
Music Lyrics
Bass and Guitar Tabs
and More...
>Music Lyrics Bass and Guitar Tabs

 

The Tabs Are Below

Learn To Read Tab
Chords Handbook
Corrections & Additions
Get Official Tab
DMB tabs @ 911Tabs

Hold Me Down

By: Dave Matthews Band

Transcribed by: Sean Spicer

 

 

intro

 

e -----------------------------|-----------------------------|

-----------------------------|-----------------------------|

----11----9----12------------|----11----9----12------------| X 2

-----------------------------|-----------------------------|

-----------------------------|-----------------------------|

E ----10----9----12----7--6----|----10----9----12----7--6----|

 

 

 

Verse

 

e -----------------------------|

-----------------------------| This isn't exactly right,

----6----7----6----4---------| dave seems to make an

-----------------------------| incredible finger stretch

-----------------------------| the way it sounds, so I'm

E ----5----7----5----3---------| trying to figure out how he

really does it.

 

Verse fill

 

e -----------------------------|

-----------------------------|

----6----11----2----4--------|

-----------------------------|

-----------------------------|

E ----5----10----2----3--------|

 

Chorus -- sometimes the same as the intro, but I haven't

worked the other part out yet. (8/1/96)

 

Return to my to my DMB tabs page

The Tablature is Copyright its respective owners.

Sign Up For My Newsletter
Subscribe | Unsubscribe

Site Map | Disclaimer | Privacy Policy | Media Kit | Submissions/Corrections

Website © 2000-2014 mattsmusicpage.com. All rights reserved.

Legal & DMCA: Matt's Music Page has been providing lyrics and tabs in a legal way, paying royalties each year to a few organizations. Then, all lyrics and tabs were removed from the site. Now, there's a new owner to the site, which purchased it August 26, 2014, and he is in negotiation to obtain licensing from BMI at the moment. If you have a specific DMCA request -- please do not hesitate to contact me via the contact button on top. I will do my very best to keep this site fully legal.

Get our toolbar!

 

ROLLING STONES MARVEL MUSIC COMIC VOODOO LOUNGE NM
$0.99
ROLLING STONES MARVEL MUSIC COMIC VOODOO LOUNGE NM picture


The Rolling Stones singer Mick Jagger - Vintage photo
$12.9
The Rolling Stones singer Mick Jagger - Vintage photo picture


SUNTORY ROLLING STONES 350 ml. ALUMINUM BEER CAN from JAPAN EMPTY
$14.99
SUNTORY ROLLING STONES 350 ml.  ALUMINUM BEER CAN from JAPAN EMPTY  picture


Rolling Stones Stern Pinball Promo Key Chain
$39.99
Rolling Stones Stern Pinball Promo Key Chain picture


1966 Press Photo Teenagers Wait for Rolling Stones' Concert Tickets, Houston
$18.88
1966 Press Photo Teenagers Wait for Rolling Stones' Concert Tickets, Houston picture