Your One-Stop Source For
Music Lyrics
Bass and Guitar Tabs
and More...
Music Lyrics Bass and Guitar Tabs

 

The Tabs Are Below

Learn To Read Tab
Chords Handbook
Corrections & Additions
Get Official Tab
DMB tabs @ 911Tabs

Tabbed by jhp4c2@mizzou.edu

 

 

 

Intro and Verse:

E-------------------------------

B-------------------------------

G--7---4--6--2----4--6--2--4----

D--x---x--x--x----x--x--x--x----

A--x---x--x--x----x--x--x--x----

E--7---3--5--2----3--5--2--3----

 

 

Chorus:

E-------------- --------

B-------------- --------

G--7--6--7--4-- -7--6---

D--x--7--7--5-- -x--7---

A--5--x--5--x-- -5--x---

E--7--5-----3-- -7--5---

 

 

Return to my to my DMB tabs page

The Tablature is Copyright its respective owners.

Sign Up For My Newsletter
Subscribe | Unsubscribe

Site Map | Disclaimer | Privacy Policy | Media Kit | Submissions/Corrections

Website © 2000-2014 mattsmusicpage.com. All rights reserved.

Legal & DMCA: Matt's Music Page has been providing lyrics and tabs in a legal way, paying royalties each year to a few organizations. Then, all lyrics and tabs were removed from the site. Now, there's a new owner to the site, which purchased it August 26, 2014, and he is in negotiation to obtain licensing from BMI at the moment. If you have a specific DMCA request -- please do not hesitate to contact me via the contact button on top. I will do my very best to keep this site fully legal.

Get our toolbar!