Your One-Stop Source For
Music Lyrics
Bass and Guitar Tabs
and More...
Music Lyrics Bass and Guitar Tabs

 

The Tabs Are Below

Learn To Read Tab
Chords Handbook
Corrections & Additions
Get Official Tab
DMB tabs @ 911Tabs

Getting Higher Jam

By: Dave Matthews Band

Transcribed by: Dan Delany

PKSConrad@aol.com

 

This was played as an outro out of #41 and and intro into Two Step at the 08-01-96 Park City, Utah HORDE show. The only other known time it was played was at the soundcheck of the 09-29-96 Hershey, Pennsylvania show.

 

Intro: (Repeat a bunch of times)

 

E---------5---5---5---5---5---5---5---5-

B------8---8---8---8---7---7---7---7----

G---7---7---7---7---7---7---7---7-------

D---------------------------------------------

A---------------------------------------------

E---------------------------------------------

 

Verse:

 

E---5---5---5------5---5---5------5---5---5------5---5---5---

B---8---8---8------8---8---8------7---7---7------7---7---7---

G---7---7---7------7---7---7------7---7---7------7---7---7---

D------------------------------------------------------------

A------------------------------------------------------------

E------------------------------------------------------------

 

Return to my to my DMB tabs page

The Tablature is Copyright its respective owners.

Sign Up For My Newsletter
Subscribe | Unsubscribe

Site Map | Disclaimer | Privacy Policy | Media Kit | Submissions/Corrections

Website © 2000-2014 mattsmusicpage.com. All rights reserved.

Legal & DMCA: Matt's Music Page has been providing lyrics and tabs in a legal way, paying royalties each year to a few organizations. Then, all lyrics and tabs were removed from the site. Now, there's a new owner to the site, which purchased it August 26, 2014, and he is in negotiation to obtain licensing from BMI at the moment. If you have a specific DMCA request -- please do not hesitate to contact me via the contact button on top. I will do my very best to keep this site fully legal.

Get our toolbar!