Your One-Stop Source For
Music Lyrics
Bass and Guitar Tabs
and More...
Music Lyrics Bass and Guitar Tabs

 

The Tabs Are Below

Learn To Read Tab
Chords Handbook
Corrections & Additions
Get Official Tab
DMB tabs @ 911Tabs

Get In Line

By: Dave Matthews Band

Transcribed by: John Athayde

bobo@nancies.org

 

This is a very techinically difficult song to play but it sounds cool once you get it down. The Chorus part is done with picking on the notes of the chord and sometimes dave slides it up to a higher position than what I've listed here.

 

Verse

E----------------------------------------:|

B----------------------------------------:|

G---------7------------------------------:|

D-------8-------8-----------------10---8-:|

A-----8-----x-6--------6----10--8----6---:|

E---6--------------x-4----8--------------:|

 

Chorus

F Fsus C Am G

E--1--(1)--|--0--|--0--|--3-----------:|

B--1--(1)--|--1--|--1--|--0-----------:|

G--2--(0)--|--0--|--2--|--0--4--2--0--:|

D--3--(3)--|--2--|--2--|--0--0--0--0--:|

A--3--(3)--|--3--|--0--|--2-----------:|

E--1--(1)--|-----|-----|--3-----------:|

 

Note the F sus is only played at certain times... usually, the F is just

held until the C is hit...

 

Jam

E-------------------------------------------:|

B-----0-0-0-0--0-0-0-0--0-0-0--0-0-0--0-0-0-:|

G-----4-4-4-4--4-4-4-4--4-4-4--5-5-5--4-4-4-:|

D--x--5-5-5-5--5-5-5-5--5-5-5--5-5-5--5-5-5-:|

A------------------------------3-3-3--------:|

E--x--3-1-3-x--3-1-3-x--3-1-3---------1-1-1-:|

 

Sometimes the B string is left out, make sure to mute the high e...

 

John Athayde (bobo@nancies.org)

With alot of help from Matt Smith

 

Return to my to my DMB tabs page

The Tablature is Copyright its respective owners.

Sign Up For My Newsletter
Subscribe | Unsubscribe

Site Map | Disclaimer | Privacy Policy | Media Kit | Submissions/Corrections

Website © 2000-2014 mattsmusicpage.com. All rights reserved.

Legal & DMCA: Matt's Music Page has been providing lyrics and tabs in a legal way, paying royalties each year to a few organizations. Then, all lyrics and tabs were removed from the site. Now, there's a new owner to the site, which purchased it August 26, 2014, and he is in negotiation to obtain licensing from BMI at the moment. If you have a specific DMCA request -- please do not hesitate to contact me via the contact button on top. I will do my very best to keep this site fully legal.

Get our toolbar!