Your One-Stop Source For
Music Lyrics
Bass and Guitar Tabs
and More...
Music Lyrics Bass and Guitar Tabs

 

The Tabs Are Below

Learn To Read Tab
Chords Handbook
Corrections & Additions
Get Official Tab
DMB tabs @ 911Tabs

Fool To Think

 

Intro:

E----------------------------------------------

B--------------------3-------------------------

G-------------7------0------4-------6-------4--

D------4----5------4---------------------------

A----2----3------5--------5-------4-------5----

E--0--------------------3-------5-------3------

 

 

Chorus:

E--------5-----0------------5-----0----- --------5-----0-------

B------3-----3-----3------3-----3-----3- ------3-----3-----3---

G----2-----2-----2------2-----2-----2--- ----0-----0-----0-----

D--0------------------0----------------- ----------------------

A--------------------------------------- ----------------------

E--------------------------------------- --3-------------------

* Don’t let the violin mess you up during this part. Boyd plays

the A, too (same as the 5th fret on the D string). It almost sounds

like the guitar part starts on that note and repeats it a lot more frequently, but it doesn’t.

 

** If this part is too hard or

confusing just play the chords:

E---5----5---------------------

B---3----3---------------------

G---2----0---------------------

D---0----0---------------------

A--------x---------------------

E--------3---------------------

 

 

Return to my to my DMB tabs page

The Tablature is Copyright its respective owners.

Sign Up For My Newsletter
Subscribe | Unsubscribe

Site Map | Disclaimer | Privacy Policy | Media Kit | Submissions/Corrections

Website © 2000-2014 mattsmusicpage.com. All rights reserved.

Legal & DMCA: Matt's Music Page has been providing lyrics and tabs in a legal way, paying royalties each year to a few organizations. Then, all lyrics and tabs were removed from the site. Now, there's a new owner to the site, which purchased it August 26, 2014, and he is in negotiation to obtain licensing from BMI at the moment. If you have a specific DMCA request -- please do not hesitate to contact me via the contact button on top. I will do my very best to keep this site fully legal.

Get our toolbar!