Your One-Stop Source For
Music Lyrics
Bass and Guitar Tabs
and More...
Music Lyrics Bass and Guitar Tabs

 

The Tabs Are Below

Learn To Read Tab
Chords Handbook
Corrections & Additions
Get Official Tab
DMB tabs @ 911Tabs

"Everything Will Be All Right..." (Spoon Outro)

------------------------------------------------

(transcribed by Ryan Ratkiewicz (dontburnthepig@hotmail.com))

May 07, 1998

 

 

 

This is the first tab that I've put together, and it's just chords.

This is the short "song" at the end of Before These Crowded Streets

(CD-6:00), that I've dubbed "Everything Will Be All Right." If you've

got any questions, please e-mail me - dontburnthepig@hotmail.com.

 

E---2----7----6----6----1-----------------------------------------------

B---2----7----6----6----1-----------------------------------------------

G---3----8----6----6----1-----------------------------------------------

D---4----9----6----6----1-----------------------------------------------

A---4----9----8----8----3-----------------------------------------------

E---2----7----6----6----1-----------------------------------------------

 

 

 

Here's another version from Edward Glowinski <mnjglow@concentric.net>:

 

-3--0-0-0-0--3-------------------------

-0--1-0-0-0--0-------------------------

-0--0-0-0-0--0-------------------------

-0--2--------0-------------------------

-2--3-2-2----2-------------------------

-3--------2--3-------------------------

 

when i heard this little diddy, the first thing that came to my head was

"Low Light" by Pearl Jam. If you listen carefully, they are practically

identical. This is how you play "Low Light", so I tried it, and it

sounded good.

 

 

Return to my to my DMB tabs page

The Tablature is Copyright its respective owners.

Sign Up For My Newsletter
Subscribe | Unsubscribe

Site Map | Disclaimer | Privacy Policy | Media Kit | Submissions/Corrections

Website © 2000-2014 mattsmusicpage.com. All rights reserved.

Legal & DMCA: Matt's Music Page has been providing lyrics and tabs in a legal way, paying royalties each year to a few organizations. Then, all lyrics and tabs were removed from the site. Now, there's a new owner to the site, which purchased it August 26, 2014, and he is in negotiation to obtain licensing from BMI at the moment. If you have a specific DMCA request -- please do not hesitate to contact me via the contact button on top. I will do my very best to keep this site fully legal.

Get our toolbar!