Your One-Stop Source For
Music Lyrics
Bass and Guitar Tabs
and More...
Music Lyrics Bass and Guitar Tabs

 

The Tabs Are Below

Learn To Read Tab
Chords Handbook
Corrections & Additions
Get Official Tab
DMB tabs @ 911Tabs

Everyday

By: Dave Matthews Band

Transcribed by: Jon Hunsberger

huns@gwi.net

 

 

Intro/Verse

e|---------------------------------

B|---5-----5--5--------1----5------

G|---5-----5--5-(3x)-3------5------

D|-3------------------3------------

A|------3---3-------1------3-------

E|---------------------------------

 

Its pretty simple, just chabging bass notes. In the Bb formation Dave fingerpicks the notes, but strumming will work.

 

 

Chorus

 

Simply Am to F to G

Stay on the Am for twice as long as the F/G combo. In other words, the length of the F and G combined should equal the length of the Am

 

Bridge

e|---------------------------------|

B|---------------------------------|

G|----5-----6---3---5---5----------|

D|----3-----3---1---3---3----------|

A|----------------3----------------|

E|--6---4-4---4--------3---3h6-----|

 

The last hammer on is like the first note of the next repitition- it takes the place of the first A# bass note of the bridge.

 

 

Return to my to my DMB tabs page

The Tablature is Copyright its respective owners.

Sign Up For My Newsletter
Subscribe | Unsubscribe

Site Map | Disclaimer | Privacy Policy | Media Kit | Submissions/Corrections

Website © 2000-2014 mattsmusicpage.com. All rights reserved.

Legal & DMCA: Matt's Music Page has been providing lyrics and tabs in a legal way, paying royalties each year to a few organizations. Then, all lyrics and tabs were removed from the site. Now, there's a new owner to the site, which purchased it August 26, 2014, and he is in negotiation to obtain licensing from BMI at the moment. If you have a specific DMCA request -- please do not hesitate to contact me via the contact button on top. I will do my very best to keep this site fully legal.

Get our toolbar!