Your One-Stop Source For
Music Lyrics
Bass and Guitar Tabs
and More...
Music Lyrics Bass and Guitar Tabs

 

The Tabs Are Below

Learn To Read Tab
Chords Handbook
Corrections & Additions
Get Official Tab
DMB tabs @ 911Tabs

Don't Drink the Water

By: Dave Matthews Band

Transcribed by:

minuteman9@aol.com

 

 

e---x---------x---x--x---

B---x---------x---x--x---

G---7-----9--13--11--9---

D---o-----o---o---o--o---

A---5-----7--11---9--7---

E---o-----o---o---o--o---

slide up

 

Just repeat that a whole bunch of times. There are probably other

sections, which are variations thereof, but I haven't got a tape of it

yet so....

 

 

Also...

Ethan Lindbloom and Josh Benson mention that Dave uses a dropped D

tuning, so take that into consideration when playing the song.

 

 

 

 

Here's another from Rory Lowe:

 

Credit...Submited by Rory Lowe...Glade14@aol.com

 

Intro and Verse

 

" Come Out, Come Out "

 

E---------------------------------------------------

B---------------------------------------------------

G---------------------------------------------------

D---7----7----7-----7-----7-----------------------

A---5----5----5-----5-----5-----------------------

E----------------------------------------------------

 

" So You Will Lay "......" Yes I will Call This "

 

E------------------------------------------------------

B------------------------------------------------------

G--7----7---7---7-----------------7----7----7------

D--x----x---x---x-------7---7-----x----x----x------

A--4----4---4---4-------5---5-----4----4----4------

E--5----5---5---5-----------------5----5----5------

 

" Whats That You Say " ....." To Remain, Then Stay "

 

E------------------------------------------------------

B-----------------------------------------------------

G--4---4---4---4-------------------------------------

D--4---4---4---4-----------------7----7---7----7---

A--2---2---2---2---------------- 7----7---7----7---

E--------------------------------5----5---5----5---

 

" I live With My Justive "

 

E---------------------------------------------------

B--------------------------------------------------

G-----7---7---7------7----7----7-----7----7----

D-----7---7---7------8----8----8-----7----7-----

A-----5---5---5------5----5----5-----5----5----

E--------------------------------------------------

 

 

Return to my to my DMB tabs page

The Tablature is Copyright its respective owners.

Sign Up For My Newsletter
Subscribe | Unsubscribe

Site Map | Disclaimer | Privacy Policy | Media Kit | Submissions/Corrections

Website © 2000-2014 mattsmusicpage.com. All rights reserved.

Legal & DMCA: Matt's Music Page has been providing lyrics and tabs in a legal way, paying royalties each year to a few organizations. Then, all lyrics and tabs were removed from the site. Now, there's a new owner to the site, which purchased it August 26, 2014, and he is in negotiation to obtain licensing from BMI at the moment. If you have a specific DMCA request -- please do not hesitate to contact me via the contact button on top. I will do my very best to keep this site fully legal.

Get our toolbar!

 

BRAND NEW KEY OF C HOHNER MINI HARMONICA HARP KEYRING KEYCHAIN KEY RING CHAIN
$8.21
BRAND NEW KEY OF C HOHNER MINI HARMONICA HARP KEYRING KEYCHAIN KEY RING CHAIN picture


RISING SONS BAND *2X3 FRIDGE MAGNET* VOCALS GUITAR MANDOLIN DOBRO HARMONICA SONG
$3.99
RISING SONS BAND *2X3 FRIDGE MAGNET* VOCALS GUITAR MANDOLIN DOBRO HARMONICA SONG picture


Vtg Christmas Angel Baby Girl W Harmonica Boy W Book SET OF 2 W GOLD WINGS
$125.0
Vtg Christmas Angel Baby Girl W Harmonica Boy W Book SET OF 2 W GOLD WINGS  picture


Beautiful Hand Carved Jewelry Trinket Jewelry Box Harmonica Case Bone And Brass
$14.5
Beautiful Hand Carved Jewelry Trinket Jewelry Box Harmonica Case Bone And Brass picture


BRAND NEW* HOHNER BOB DYLAN SIGNATURE LIMITED EDITION HARMONICA COLLECTORS ITEM
$140.19
BRAND NEW* HOHNER BOB DYLAN SIGNATURE LIMITED EDITION HARMONICA COLLECTORS ITEM picture