Your One-Stop Source For
Music Lyrics
Bass and Guitar Tabs
and More...
>Music Lyrics Bass and Guitar Tabs

 

The Tabs Are Below

Learn To Read Tab
Chords Handbook
Corrections & Additions
Get Official Tab
DMB tabs @ 911Tabs

Artist: Dave Matthews

Song: Dodo

Album: Some Devil

Tabbed By: Ryan Clements

Tuning: Standard

 

im not sure if this tab is 100% perfect but its close

 

i put this tab under DMB and Dave Matthews for all those

idiots out there who think DMBs new album is called Some Devil

 

===intro;verse---> mute strings occasionally

e----------------------------------------------

B----------------------------------------------

G----------------------------------------------

D--8----5-----3--------------------------------

A--8----5-----3--------------------------------

E--6----3-----1--------------------------------

 

===chorus--->

 

"So I, wonder this........"

 

e-----------3----0-----------------------3-----------------

B-------3---0----1----1-1-0---3---5---7--0--1--1------1--1-

G--3----5---0----2----2-2-1---5---7---9--0--2--0------2--0-

D--4----5---0----2--3-2-3-2---5---7---9--0--2--2------2--2-

A--4----3---2----0--3-0-3-2---3---5---7--2--0--3------0--3-

E--2----3---3-------1---1-0---3---5---7--3-----------------

 

"....rules.....Who did? You did. You."

e--------------------------------------------

B--------------------------------------------

G--------------------------------------------

D--8--5-----3--------------------------------

A--8--5-----3--------------------------------

E--6--3-----1--------------------------------

 

"Of all the things you are saying,love.."

 

e-----

B-----

G----- strum at this until the band comes back in,

D--8-- then play the verse.

A--8--

E--6-- <--- also play this for the outro

 

 

Return to my to my DMB tabs page

The Tablature is Copyright its respective owners.

Sign Up For My Newsletter
Subscribe | Unsubscribe

Site Map | Disclaimer | Privacy Policy | Media Kit | Submissions/Corrections

Website © 2000-2014 mattsmusicpage.com. All rights reserved.

Legal & DMCA: Matt's Music Page has been providing lyrics and tabs in a legal way, paying royalties each year to a few organizations. Then, all lyrics and tabs were removed from the site. Now, there's a new owner to the site, which purchased it August 26, 2014, and he is in negotiation to obtain licensing from BMI at the moment. If you have a specific DMCA request -- please do not hesitate to contact me via the contact button on top. I will do my very best to keep this site fully legal.

Get our toolbar!

 

Very Rare The Rolling Stones Zippo Red Windproof Cigarette Lighter 2007
$36.99
Very Rare The Rolling Stones Zippo Red Windproof Cigarette Lighter 2007 picture


5 Rolling Stones Poker Chips
$2.0
5 Rolling Stones Poker Chips picture


OLD LARGE HISTORIC PHOTO OF THE ROLLING STONES, MICK JAGGER etc c1962
$7.33
OLD LARGE HISTORIC PHOTO OF THE ROLLING STONES, MICK JAGGER etc c1962 picture


ZIPPO ROLLING STONES GLITTER LIGHTER BRUSHED CHROME RARE 2007 YEAR B 07 GREAT
$59.9
ZIPPO ROLLING STONES GLITTER LIGHTER BRUSHED CHROME RARE 2007 YEAR B 07 GREAT picture


"THE ROLLING STONES" COLLECTOR'S SERIES PINT GLASSES THE VOODOO LOUNGE BAREWARE
$34.99