Your One-Stop Source For
Music Lyrics
Bass and Guitar Tabs
and More...
Music Lyrics Bass and Guitar Tabs

 

The Tabs Are Below

Learn To Read Tab
Chords Handbook
Corrections & Additions
Get Official Tab
DMB tabs @ 911Tabs

Tabbed by jhp4c2@mizzou.edu

 

 

Dave's part during the D&T Intro:

E---------------------------------------------------------------------------------

B---------------------------------------------------------------------------------

G-----------4p2-------------2---------2--------------5------4---------------------

D-----------------------------------------------2/3-----2-----------4-----5-------

A-------------------------------------------3-------------------2------3----------

E---3------------------3---------3---------------------------------------------7--

 

 

INTRO:

E------0------

B--3---1------

G--2---0------

D--0---2------

A--x---3------

E--3----------

 

 

 

"Digging a ditch..."

E-------0-----------------------------

B--3----2-----------------------------

G--2----0----------5---4--------------

D--0----2------2/3---2-----4---5------

A--x----3----------------2---3--------

E--3-----------------------------7----

 

 

 

E-----------

B--3---3----

G--2---0----

D--0---2----

A--x---3----

E--3--------

 

 

 

Return to my to my DMB tabs page

The Tablature is Copyright its respective owners.

Sign Up For My Newsletter
Subscribe | Unsubscribe

Site Map | Disclaimer | Privacy Policy | Media Kit | Submissions/Corrections

Website © 2000-2014 mattsmusicpage.com. All rights reserved.

Legal & DMCA: Matt's Music Page has been providing lyrics and tabs in a legal way, paying royalties each year to a few organizations. Then, all lyrics and tabs were removed from the site. Now, there's a new owner to the site, which purchased it August 26, 2014, and he is in negotiation to obtain licensing from BMI at the moment. If you have a specific DMCA request -- please do not hesitate to contact me via the contact button on top. I will do my very best to keep this site fully legal.

Get our toolbar!