Your One-Stop Source For
Music Lyrics
Bass and Guitar Tabs
and More...
>Music Lyrics Bass and Guitar Tabs

 

The Tabs Are Below

Learn To Read Tab
Chords Handbook
Corrections & Additions
Get Official Tab
DMB tabs @ 911Tabs

 

christ.txt

Crash by Dave Matthews Band

Once again a band that Ska37 doesnt particularly like,

but he has tabbed it to honor many requests

Feel free to request anything

 

e------0--0-0-0-----0--0-0-|------0-0-0-0-----0--0-0-|

b------5------------5------|------5-----------5------|

g------4------------4------|------4-----------4------|

d--------------------------|-------------------------|

a-4--------------0---------|-2-----------------------|

e--------------------------|---------------0---------|

 

 

 

e------0--0-0-0-----0--0-0-|------0-0-0-0-----0--0-0-|

b------5------------5------|------5-----------5------|

g------4------------4------|------4-----------4------|

d--------------------------|-------------------------|

a----------------0---------|-2-----------------------|

e-4------------------------|---------------0---------|

 

Repeat

 

 

e------0--0-0-0----------|-0--------------------|

b------5-----------------|-0--------------------|

g------4-----------------|-1--------------------|

d------------------------|-2--------------------|

a-4-----------------0--2-|-2--------------------|

e----------------4-------|-0--------------------|

 

 

This little riff is played during the song......

 

e-0-0-0-2---0---0-0-0-0-2---0---0-|-0-0-0-4---0---0-0-0-0-2---0---0-|

b-5-----5---------------5---------|-------5---------------5---------|

g-4-----4---------------4---------|-------4---------------4---------|

d---------------------------------|---------------------------------|

a---------------------------------|---------------------------------|

e---------------------------------|---------------------------------|

 

Okay, there it is....

I now consider the matter done, stop requesting this song from me.

To be on a Guitar Tab mailing list, email Wildt84271

If you do happen to have a request from me, my specialties are

ska and the likes......but I will do mostly anything

 

Have a nice day !! =)

 

 

 

 

Return to my to my DMB tabs page

The Tablature is Copyright its respective owners.

Sign Up For My Newsletter
Subscribe | Unsubscribe

Site Map | Disclaimer | Privacy Policy | Media Kit | Submissions/Corrections

Website © 2000-2014 mattsmusicpage.com. All rights reserved.

Legal & DMCA: Matt's Music Page has been providing lyrics and tabs in a legal way, paying royalties each year to a few organizations. Then, all lyrics and tabs were removed from the site. Now, there's a new owner to the site, which purchased it August 26, 2014, and he is in negotiation to obtain licensing from BMI at the moment. If you have a specific DMCA request -- please do not hesitate to contact me via the contact button on top. I will do my very best to keep this site fully legal.

Get our toolbar!

 

BALI *WE'RE SO PRETTY* SEX PISTOLS LYRICS OCTOPUS PINK GUITAR Hard Rock Cafe PIN
$24.99
BALI *WE'RE SO PRETTY* SEX PISTOLS LYRICS OCTOPUS PINK GUITAR Hard Rock Cafe PIN picture


♫ THE BEATLES 3 great books - lyrics - OOP good condition - lot 11 ♫
$28.53
♫ THE BEATLES  3 great books - lyrics - OOP good condition - lot 11 ♫ picture


MATTHEW SWEET "ALTERED BEAST PRESS RELEASE PACKET w 3 PG PRESS RELEASE+LYRICS ON
$5.0
MATTHEW SWEET


OLD LARGE HISTORIC PHOTO OF ENDICOTT NEW YORK, VIEW OF THE LYRIC THEATER c1910
$5.56
OLD LARGE HISTORIC PHOTO OF ENDICOTT NEW YORK, VIEW OF THE LYRIC THEATER c1910 picture


4Y LOVELY ABBEY SHEA VISION LYRIC ORCHID GREEN IVORY DOT WOVEN UPHOLSTERY FABRIC
$72.0
4Y LOVELY ABBEY SHEA VISION LYRIC ORCHID GREEN IVORY DOT WOVEN UPHOLSTERY FABRIC picture