Your One-Stop Source For
Music Lyrics
Bass and Guitar Tabs
and More...
Music Lyrics Bass and Guitar Tabs

 

The Tabs Are Below

Learn To Read Tab
Chords Handbook
Corrections & Additions
Get Official Tab
DMB tabs @ 911Tabs

Dave Matthews Band – Where Are You Going

Tabbed by: sinniecoyote

 

 

Intro

G|-----|

D|-----|

A|--5--|

E|-----|

 

Verse 1

G|-------------------------------------------|

D|----------------------12-------------------|

A|-5--10--10/14--14/12------10--10/14--14/12-|

E|-------------------------------------------|

 

Chorus 1

G|-----------------------------------------------|

D|----10-9-8----10-9-8----10-9-8-----------------|

A|-5-/-------5-/-------5-/-------5-3-1------5--3-|

E|-----------------------------------------------|

 

Verse 2

G|------------------------------------------------------------------|

D|------------------------------------------------------------------|

A|-5--5-5---------------------------5--5-5--------------------------|

E|---------3--3-3--/7--7-7--5--5-5----------3--3-3--/7--7-7--5--5-5-|

 

G|----------------------------------|

D|----------------------------------|

A|-5--5-5---------------------------|

E|---------3--3-3--/7--7-7--\5--5-5-|

 

Chorus 2

G|--------------------------------------3--------|

D|----10-9-8----10-9-8----10-9-8-----------------|

A|-5-/-------5-/-------5-/-------5-3-1------5--3-|

E|-----------------------------------------------|

 

G|-----------------------------------------|

D|-----------------------------------------|

A|-5--5-5----------------------------------|

E|---------3--3-3--/7--7-7--5--5-5--5--5-5-|

 

Bridge

G|----------------------------------------------------------------------------|

D|----------------------------------------------------------------------------|

A|-7-7\5--2-2/5-----7-7\5--2-2/5---333-5-7-7\5-7p5-2-2/5----5---7-7/5-2-5-7-3-|

E|--------------3-7--------------3-----------------------3-3-357--------------|

 

G|-----------------------------------|

D|-----------------------------------|

A|-3/5--5-5--------------------------|

E|-----------3--3-3--/7--7-7--5--5-5-|

 

Chorus 3

G|--------------------------------------3--------|

D|----10-9-8----10-9-8----10-9-8-------3---------|

A|-5-/-------5-/-------5-/-------5-3-1------5--3-|

E|-----------------------------------------------|

 

Ending

G|-----------------------------------------------------------------|

D|-----------------------------------------------------------------|

A|-5--10--10/14--14/12--5--5-5-----------------------------------5-|

E|------------------------------3--3-3--/7--7-7--5--5-5--5--5-5----|

 

 

Return to my DMB bass tabs page

The Tablature is Copyright its respective owners.

Sign Up For My Newsletter
Subscribe | Unsubscribe

Site Map | Disclaimer | Privacy Policy | Media Kit | Submissions/Corrections

Website © 2000-2014 mattsmusicpage.com. All rights reserved.

Legal & DMCA: Matt's Music Page has been providing lyrics and tabs in a legal way, paying royalties each year to a few organizations. Then, all lyrics and tabs were removed from the site. Now, there's a new owner to the site, which purchased it August 26, 2014, and he is in negotiation to obtain licensing from BMI at the moment. If you have a specific DMCA request -- please do not hesitate to contact me via the contact button on top. I will do my very best to keep this site fully legal.

Get our toolbar!