Your One-Stop Source For
Music Lyrics
Bass and Guitar Tabs
and More...
Music Lyrics Bass and Guitar Tabs

 

The Tabs Are Below

Learn To Read Tab
Chords Handbook
Corrections & Additions
Get Official Tab
DMB tabs @ 911Tabs

Tabbed by jhp4c2@mizzou.edu

 

 

Intro:

E----------------------------------------------

B----------------------------------------------

G--4h5--4-----4h5--4--7--4h5-4-2---2-----------

D--5----5--5--5----5--7--5---5-2-4-2-2-0-0-----

A--2/3--2--5--2/3--2--5--2/3-2-0-5-0-3-2-2-----

E----------3---------------------2-----3-3-----

 

 

"I know she's gonna..."

E-------------------------------

B--3-----------------------------

G--2--2--0-------------------------

D--0--2--0--0---0--2--0--0--------------

A--0--0--2--0---2--3--0--2--------------

E--------3--2---------2--3----------

 

These are partial chords, the full one are:

D Am G D/F# G/B C D/F# G

 

 

 

"Yeah, you're the one for me..."

E-------

B-------

G---0--- then play verse

D---0---

A---1---

E---3---

 

 

Return to my to my DMB tabs page

The Tablature is Copyright its respective owners.

Sign Up For My Newsletter
Subscribe | Unsubscribe

Site Map | Disclaimer | Privacy Policy | Media Kit | Submissions/Corrections

Website © 2000-2014 mattsmusicpage.com. All rights reserved.

Legal & DMCA: Matt's Music Page has been providing lyrics and tabs in a legal way, paying royalties each year to a few organizations. Then, all lyrics and tabs were removed from the site. Now, there's a new owner to the site, which purchased it August 26, 2014, and he is in negotiation to obtain licensing from BMI at the moment. If you have a specific DMCA request -- please do not hesitate to contact me via the contact button on top. I will do my very best to keep this site fully legal.

Get our toolbar!