Your One-Stop Source For
Music Lyrics
Bass and Guitar Tabs
and More...
>Music Lyrics Bass and Guitar Tabs

 

The Tabs Are Below

Learn To Read Tab
Chords Handbook
Corrections & Additions
Get Official Tab
DMB tabs @ 911Tabs

Stay (Wasting Time)

By: Dave Matthews Band

Transcribed by: Tom Lockhart

mantra123@hotmail.com

 

its played on a 5 string modulus bass but can be played on a 4 string

very fun song to play

Verse -with a lot of bounce:

G--------------------------------------------------------------

D--------------------5--------------5--5-----6-----6-----------

A------5--6--7--8------5--------------------------------repeat-

E---6-------------------------3--3--------4-----4-----4--------

B--------------------------------------------------------------

Chorus, (very easy):

G--------------------------------------------------------------

D--------------------------------------------------------------

A---(6)-------------(6)-(6)--(3)-(5)(6)(6)----(6)--------------

E---------(1)-(1)(0)-----------------------(1)----(1)(1)(1)(3)-

B----4----/6---6--5--4---4---\1---3--4--4--/6-\4--/6--6--6--8--

jump back to verse

Bridge, play VERY bouncy:

G--------3-----3-----------------------------------------------

D-----------2-----2----------------------------------repeat----

A---1------------------0--1--2--3---------6--7--8------4x------

E--------------------------------------------------------------

B--------------------------------------------------------------

back to chorus

 

Return to my DMB bass tabs page

The Tablature is Copyright its respective owners.

Sign Up For My Newsletter
Subscribe | Unsubscribe

Site Map | Disclaimer | Privacy Policy | Media Kit | Submissions/Corrections

Website © 2000-2014 mattsmusicpage.com. All rights reserved.

Legal & DMCA: Matt's Music Page has been providing lyrics and tabs in a legal way, paying royalties each year to a few organizations. Then, all lyrics and tabs were removed from the site. Now, there's a new owner to the site, which purchased it August 26, 2014, and he is in negotiation to obtain licensing from BMI at the moment. If you have a specific DMCA request -- please do not hesitate to contact me via the contact button on top. I will do my very best to keep this site fully legal.

Get our toolbar!

 

VINTAGE SORRENTO MUSIC JEWELRY BOX
$45.0
VINTAGE SORRENTO MUSIC JEWELRY BOX picture


VINTAGE LACQUERED MUSIC BOX JAPAN
$25.99
VINTAGE LACQUERED MUSIC BOX JAPAN picture


Vintage Kehlsteinhaus Bavaria Germany Colorscope Cow Bell View Master Music Box
$8.99
Vintage Kehlsteinhaus Bavaria Germany Colorscope Cow Bell View Master Music Box picture


VINTAGE SCHMIDT Signed Collectible Musical Turning Clown
$9.99
VINTAGE  SCHMIDT Signed Collectible Musical Turning Clown picture


Vintage - Linen - Postcard - Stage - Radio City Music Hall - New York City
$3.75
Vintage - Linen - Postcard - Stage - Radio City Music Hall - New York City   picture