Your One-Stop Source For
Music Lyrics
Bass and Guitar Tabs
and More...
Music Lyrics Bass and Guitar Tabs

 

The Tabs Are Below

Learn To Read Tab
Chords Handbook
Corrections & Additions
Get Official Tab
DMB tabs @ 911Tabs

THE SPACE BETWEEN (Bassline)

As recorded by Dave Matthews Band

(From the 2001 Album EVERYDAY)

 

 

Words and Music by David J. Matthews and Glen Ballard

 

 

 

Gtr I (B E A D G) - 'Standard'

 

 

Verse Chorus

Moderately Slow Q=88

4/4

Gtr I

H Wx8 Wx7

|------||------------||--------|

|------||------------||--------|

|------||------------||--------|

|------||------------||--------|

|------||------------||--------|

 

 

H E E E E +Q +E. S S S E +E. S e Q E e e e E

|--------------|------------------------|-----------------||

|--------------|------------------------|-----------------||

|--------------|------------------------|-----------------||

|------5-4-2---|------------------------|-----------------||

|------------3-|-(3)--(3)-3-0-2-3-(3)-x-|-3-3----5-5-5-3--||

 

 

Verse

+E E +E S S S s E +E. S e Q E e e e E +E E E. S S s E +Q

|---------------------------|----------------|------------------------|

|---------------------------|----------------|------------------------|

|---------------5-----------|----------------|------------5-----------|

|-------------5---5---------|----------------|----------5---5---------|

|-(3)-3-(3)---------3-(3)-x-|-3-3----5-5-5-3-|-(3)-3-3--------3-(3)s==|

 

 

~~

Q +Q e e e E +E E +E S S S s E +E. S e Q S S e e e E

|--------------------|---------------------------|------------------|

|--------------------|---------------------------|------------------|

|--------------------|---------------5-----------|------x-----------|

|--------------------|-------------5---5---------|--------x---------|

|-15--(15)\--5-5-5-3-|-(3)-3-(3)---------3-(3)-x-|-3-3------5-5-5-3-|

 

 

Chorus

+E E E. S S S E +Q Q. E E E E E H E E +E. S

|-----------------------|-------------------||-----------------|

|-----------------------|-------------------||-----------------|

|------------5----------|-------------------||-----------------|

|----------5---5--------|-------17\-0-0-0-0-||-5----5-5-(5)-x--|

|-(3)-3-3--------3-(3)s=|=15----------------||-----------------|

 

 

E Q. E E S S E E Q. E Q S S E Q S S E S S E S S

|-------------------|-----------------|-----------------------|

|-------------------|-----------------|-----------------------|

|-------------------|-----------------|-----------------------|

|-4-4----4-4-4s5s4\-|-2-2----2-2--2-0-|-2-2--2-0-2-2-0-4-2-0--|

|-------------------|-----------------|-----------------------|

 

 

E Q. E E E +E H S S E E E Q +E. S S S E E. S

|-------------------|-------------------|---------------------|

|-------------------|-------------------|---------------------|

|-------------------|----------7--------|---------------------|

|-5-5----5-5-7-(7)\-|-4----4s7---10\-7\-|-2--(2)-0-2-0-2-2--0-|

|-------------------|-------------------|---------------------|

 

 

E Q. E E E E +Q +E. S S S Q S S E Q. e e e E

|----------------|-----------------------|----------------|

|----------------|-----------------------|----------------|

|----------------|-------------------5---|----------------|

|-2-2----5-4-2---|---------------------x-|----------------|

|--------------3-|-(3)--(3)-3-0-2-3------|-3-3----5-5-5-3-|

 

 

Bridge

+Q +E. S S S Q S S e Q E E E E +E E E E. S e E E E

|-----------------------|---------------------||------------------|

|-----------------------|---------------------||------------------|

|------------5------5---|---------------------||------------------|

|----------5---5------5-|------------12-(12)\-||-7-7-7--7-5-5---4-|

|-(3)--(3)-------3------|-3-3----5-5----------||------------------|

 

 

|-3-|

+E E E E +E Q S S S Q. S S e Q E +E E E E +E E S S S S

|------------------------|-----------------|--------------------------|

|------------------------|-----------------|--------------------------|

|------------------------|-----------------|-----------------5-6-7-5--|

|-(4)-4-4-3-(3)-2--7-8-9-|-7----7-5-5-5--4-|-(4)-4-4-3-(3)-2----------|

|------------------------|-----------------|--------------------------|

 

 

Q +E. S e E E E +E S S E E E Q. +H. Q

|------------------|--------------------|--------------||

|------------------|--------------------|--------------||

|------------------|--------------------|--------------||

|-7--(7)-x-5-5---4-|-(4)-4-4---3---1----|-(1)----------||

|------------------|--------------------|--------------||

 

 

Chorus

H +Q. S S H +Q. S S W

|--------------------|--------------------|-------|

|-19----(19)---21p19s|=18----(18)---19p18S|=16----|

|--------------------|--------------------|-------|

|--------------------|--------------------|-------|

|--------------------|--------------------|-------|

 

 

+H +E E S E. E E E S S S S Q S S E E E S S S S Q S S

|-------------------------|----------------------|----------------------|

|-(16)----(16)\-----------|----------------------|----------------------|

|---------------17\-------|----------------------|----------------------|

|---------------------12\-|-5-5-5-x-x-x-x-5--x-x-|-4-4-4---x-x-x-4--x-x-|

|-------------------------|----------------------|----------------------|

 

 

E E E S S S S Q S S E E e S S E S S E S S E E E S S S S Q S S

|----------------------|-----------------------|----------------------|

|----------------------|-----------------------|----------------------|

|----------------------|-----------------------|----------------------|

|-2-2-2---x-x-x-2--x-x-|-2-2-2-x-x-2-x-x-4-x-x-|-5-5-5-x-x-x-x-5--x-x-|

|----------------------|-----------------------|----------------------|

 

 

E E E S S S S Q S S E E E S S E Q S S E E e S S E S S E S S

|----------------------|--------------------|------------------------|

|----------------------|--------------------|------------------------|

|----------------------|--------------------|------------------------|

|-2-2-2---x-x-x-4--x-0-|-2-2-2-x-x-x-2--x-x-|-2-2-2-x-x-2-x-x-4-x-x--|

|----------------------|--------------------|------------------------|

 

 

E E E S S S S Q S S E E E S S S S Q S S E Q. S S Q S S

|----------------------|----------------------|--------------------|

|----------------------|----------------------|--------------------|

|----------------------|----------------------|-9-9\---------------|

|-5-5-5---x-x-x-5--x-x-|-4-4-4---x-x-x-4--5-7-|--------x-x-2--x-x--|

|----------------------|----------------------|--------------------|

 

 

Q Q E S S E S S E E E S S S S Q S S E E E S S S S Q S S

|---------------------|----------------------|-----------------------|

|---------------------|----------------------|-----------------------|

|-----9\--------------|----------------------|-----------------------|

|-2/------2-x-x-4-x-x-|-5-5-5-x-x-x-x-5--x-x-|-4-4-4---x-x-x-4--x-x--|

|---------------------|----------------------|-----------------------|

 

 

E E E S S S S Q S S E E a E E S S S S S S E E Q S S S S S S S S S S

|----------------------|-------------------------|---------------------------|

|----------------------|-------------------------|------------7--------------|

|----------------------|-----------------------7-|----------9---9-x---7------|

|-2-2-2---x-x-x-x--x-x-|-2-2-2s4---2-0-2-2-4-4---|-5-5--x-x---------5---7-5--|

|----------------------|---------2---------------|---------------------------|

 

 

E E +E. S S S S S S S E E Q. +Q S S S S E E S S S S E E S S S S

|--------------------------|---------------------|--------------------------||

|-------------7------------|---------------------|--------------------------||

|---------7s9---9-x---7----|-9-9----(9)--9-7-8-9-|-9-9-9-9-8-7----------7-7-||

|-4-4-(4)-----------5---5/-|---------------------|-------------9-7-9-10-----||

|--------------------------|---------------------|--------------------------||

 

 

H +Q. S S H +Q. S S W

|------------------|--------------------|-------|

|------------21p19s|=18----(18)---19p18S|=16----|

|-0----(0)---------|--------------------|-------|

|------------------|--------------------|-------|

|------------------|--------------------|-------|

 

 

+H +E E S E. E. S +E E +Q Q E. S +E E +Q Q

|------------------------|----------------------|-----------------------|

|-(16)----(16)-----------|----9-(9)s11-(11)-----|----9-(9)s11-(11)------|

|--------------17\-------|-7-----------------9s=|=7-----------------9s==|

|--------------------12\-|----------------------|-----------------------|

|------------------------|----------------------|-----------------------|

 

 

E. S +E E +Q Q E. S +E E +Q Q E. S +E E +Q Q 8x

|----------------------|----------------------||-------------------------||

|----9-(9)s11-(11)-----|----9-(9)s11-(11)-----||o----9-(9)s11-(11)------o||

|-7-----------------9s=|=7-----------------9s=||==7-----------------9s===||

|----------------------|----------------------||o-----------------------o||

|----------------------|----------------------||-------------------------||

 

 

 

 

--------------------------------------------------------------------------------

 

 

Duration Legend

---------------

W - whole; H - half; Q - quarter; E - 8th; S - 16th; T - 32nd; X - 64th; a - acciaccatura

+ - note tied to previous; . - note dotted; .. - note double dotted

Uncapitalized letters represent notes that are staccato (1/2 duration)

Irregular groupings are notated above the duration line

Duration letters will always appear directly above the note/fret number it represents the

duration for. Duration letters with no fret number below them represent rests. Multi-

bar rests are notated in the form Wxn, where n is the number of bars to rest for. Low

melody durations appear below the staff

 

Tablature Legend

----------------

h - hammer-on

p - pull-off

b - bend

pb - pre-bend

r - bend release (if no number after the r, then release immediately)

/\ - slide into or out of (from/to "nowhere")

s - legato slide

S - shift slide

- natural harmonic

[n] - artificial harmonic

n(n) - tapped harmonic

~ - vibrato

tr - trill

T - tap

TP - trem. picking

PM - palm muting

\n/ - tremolo bar dip; n = amount to dip

\n - tremolo bar down

n/ - tremolo bar up

/n\ - tremolo bar inverted dip

= - hold bend; also acts as connecting device for hammers/pulls

<> - volume swell (louder/softer)

x - on rhythm slash represents muted slash

o - on rhythm slash represents single note slash

 

Misc Legend

-----------

| - bar

|| - double bar

||o - repeat start

o|| - repeat end

*| - double bar (ending)

: - bar (freetime)

$ - Segno

& - Coda

Tempo markers - = BPM(8/16=s8/s16), where s8 = swing 8ths, s16 = swing 16ths

 

 

Return to my DMB bass tabs page

The Tablature is Copyright its respective owners.

Sign Up For My Newsletter
Subscribe | Unsubscribe

Site Map | Disclaimer | Privacy Policy | Media Kit | Submissions/Corrections

Website © 2000-2014 mattsmusicpage.com. All rights reserved.

Legal & DMCA: Matt's Music Page has been providing lyrics and tabs in a legal way, paying royalties each year to a few organizations. Then, all lyrics and tabs were removed from the site. Now, there's a new owner to the site, which purchased it August 26, 2014, and he is in negotiation to obtain licensing from BMI at the moment. If you have a specific DMCA request -- please do not hesitate to contact me via the contact button on top. I will do my very best to keep this site fully legal.

Get our toolbar!