Your One-Stop Source For
Music Lyrics
Bass and Guitar Tabs
and More...
Music Lyrics Bass and Guitar Tabs

 

The Tabs Are Below

Learn To Read Tab
Chords Handbook
Corrections & Additions
Get Official Tab
DMB tabs @ 911Tabs

Seek up

 

As played by Dave Matthews Band on 'Remember Two Things'

 

Transcribed over the week of March 8th-March 15th, 1998 by Cody Rahn

 

X= muted note (strike last played note on that string, muted)

 

X

X= Rest measure

 

%

%= Repeat last measure

 

A couple people have requested this song since I began posting my tabs,

but me being the slacker that I am, I put it off. Here it is now, in it's

entirety. I do hope y'all enjoy it.

 

 

 

********

Intro #1

********

 

Repeat 4 times.

 

 

1 & 2 & 3 & 1 & 2 & 3 &

G|---------------------------|---------------------------|

D|---------------------------|---------------------------|

A|---------------------------|---------------------------|

D|---0-----------------------|---------------------------|

 

1 & 2 & 3 & 1 & 2 & 3 &

G|---------------------------|---------------------------|

D|---------------------------|---------------------------|

A|---------------------------|---------------------------|

D|---------------------------|-------------------3-------|

 

 

********

Intro #2

********

 

This is played during the indian-sounding part:

 

1 & a 2 e & 3 &

G|---------------------------|

D|---------3---X-----3-------|

A|---5-----------5-------5---|

D|---------------------------|

 

 

********

Intro #3

********

 

 

1 & 2 & 3 & 1 & 2 & 3 &

G|---------------------------|---------------------------|

D|---------3---X-----3-------|---------5---X-----5-------|

A|---1-----------1-------1---|---3-----------3-------3---|

D|---------------------------|---------------------------|

"Fall Back

 

1 & a 2 e & 3 & 1 & a 2 e & 3 &

G|---------------------------|---------------------------|

D|---------3---X-----3-------|---------3---X-----3-------|

A|---5-----------5-------5---|---5-----------5-------5---|

D|---------------------------|---------------------------|

Again.."

 

 

*****

Verse

*****

 

 

1 & a 2 e & 3 &

G|---------------------------|---------------------------|

D|---------3---X-----3-------|-------------%-------------|

A|---5-----------5-------5---|-------------%-------------|

D|---------------------------|---------------------------|

 

 

G|---------------------------|---------------------------|

D|------------%--------------|-------------%-------------|

A|------------%--------------|-------------%-------------|

D|---------------------------|---------------------------|

 

1 & a 2 e & 3 &

G|---------------------------|---------------------------|

D|---------5---X-----5-------|-------------%-------------|

A|---3-----------3-------3---|-------------%-------------|

D|---------------------------|---------------------------|

 

1 & a 2 e & 3 &

G|---------------------------|---------------------------|

D|---------3---X-----3-------|-------------%-------------|

A|---5-----------5-------5---|-------------%-------------|

D|---------------------------|---------------------------|

 

 

During the section in which Dave sings

 

"Forget about the reasons, the treasons we are seeking...,"

 

they play the Intro riff #3. On the first instance of this part,

it is ended like this:

 

 

1 & 2 & 3 & 1 & 2 & 3 &

G|---------------------------|---------------------------|

D|---------3---X-----3-------|---------5---X-----5-------|

A|---1-----------1-------1---|---3-----------3-------3---|

D|---------------------------|---------------------------|

"..all find our lives swept a-

 

1 & 2 & 3 &

G|---------------------------|

D|---------------------------|

A|---5-----------------------|

D|---0-----------------------|

-way."

 

All the other times, they just return straight to the verse riff.

 

 

******

Chorus

******

 

 

1 & 2 & 3 & 1 & 2 & 3 &

G|---------------------------|---------------------------|

D|---------------------------|---------------------------|

A|---------------7-----------|---------------9-----------|

D|---7-------7-------7-------|---9-------9-------9-------|

"You seek up an e- -motion..."

 

 

1 & 2 & 3 & 1 & 2 & 3 &

G|---------------------------|---------------------------|

D|---------------------------|---------------------------|

A|---------------5-----------|---------------7-----------|

D|---5-------5-------5-------|---7-------7-------7-------|

 

 

At the end of the chorus, hold the last note during the 'ha ha' part.

Directly after that, they play this along with the horn and violin:

 

1 & 2 & 3 & 1 & 2 & 3 &

G|---------------------------|---------------------------|

D|-------------X-------------|---------------------------|

A|-------------X-------------|-----------1-------3-------|

D|---------------------------|---5-----------------------|

 

1 & 2 & 3 & 1 & 2 & 3 &

G|---------------------------|---------------------------|

D|---------------------------|---------------------------|

A|---5-----------------------|---------------------------|

D|---0-----------------------|---------------------------|

 

The last note is held and faded out so that it's gone just

as you go back into the verse riff.

 

That basically covers the whole song. At the end of the song,

Dave sings 'Fall back again' a few more times. Stefan plays

this at the very end right after the last time Dave says that

line. This is repeated as the song fades out.

 

 

 

1 & 2 & 3 & 1 & 2 & 3 &

G|---------------------------|---------------------------|

D|---------------------------|---------------------------|

A|---------------------------|---------------------------|

D|---0-----3---0-0---3---0---|---0-----3---0-0---3---5---|

 

 

That's all there is to it. Enjoy.

 

 

****************

RedRocks addendum

 

Verse riff at the beginning is a little different:

 

1 & a 2 e & 3 &

G|---------------------------|---------------------------|

D|---------3---X-----3-------|---------3---X-----3-------|

A|---5-----------5-------5---|---5-----------5-------5---|

D|---------------------------|---------------------------|

 

1 & a 2 e & 3 &

G|---------------------------|---------5---X-----7-------|

D|---------3---X-----3---5---|---7-----------7-------7---|

A|---5-----------5-----------|---------------------------|

D|---------------------------|---------------------------|

 

 

Cody-

 

 

 

Return to my DMB bass tabs page

The Tablature is Copyright its respective owners.

Sign Up For My Newsletter
Subscribe | Unsubscribe

Site Map | Disclaimer | Privacy Policy | Media Kit | Submissions/Corrections

Website © 2000-2014 mattsmusicpage.com. All rights reserved.

Legal & DMCA: Matt's Music Page has been providing lyrics and tabs in a legal way, paying royalties each year to a few organizations. Then, all lyrics and tabs were removed from the site. Now, there's a new owner to the site, which purchased it August 26, 2014, and he is in negotiation to obtain licensing from BMI at the moment. If you have a specific DMCA request -- please do not hesitate to contact me via the contact button on top. I will do my very best to keep this site fully legal.

Get our toolbar!

 

VINTAGE SORRENTO MUSIC JEWELRY BOX
$45.0
VINTAGE SORRENTO MUSIC JEWELRY BOX picture


VINTAGE LACQUERED MUSIC BOX JAPAN
$25.99
VINTAGE LACQUERED MUSIC BOX JAPAN picture


Vintage Kehlsteinhaus Bavaria Germany Colorscope Cow Bell View Master Music Box
$8.99
Vintage Kehlsteinhaus Bavaria Germany Colorscope Cow Bell View Master Music Box picture


VINTAGE SCHMIDT Signed Collectible Musical Turning Clown
$9.99
VINTAGE  SCHMIDT Signed Collectible Musical Turning Clown picture


Vintage - Linen - Postcard - Stage - Radio City Music Hall - New York City
$3.75
Vintage - Linen - Postcard - Stage - Radio City Music Hall - New York City   picture