Your One-Stop Source For
Music Lyrics
Bass and Guitar Tabs
and More...
Music Lyrics Bass and Guitar Tabs

 

The Tabs Are Below

Learn To Read Tab
Chords Handbook
Corrections & Additions
Get Official Tab
DMB tabs @ 911Tabs

Recently

 

As played by Dave Matthews Band on 'Remember Two Things'

 

Transcribed at 12:11pm, March 8th, 1998 by Cody Rahn

 

(Elaboration is welcome)

 

\=slide up*

/=slide down*

H=hammer

P=pulloff

^=Bend, marked next to note. 1/2 step unless otherwise specified

^=Stacatto note (marked outside of staff)

%=repeat previous measure

 

 

__3__

| | =Triplet timing, both regular and double triplets--watch spacing (above staff)

 

 

This is a great song, especially for the bass player, from Dave's early

album, 'Remember Two Things.' I've had multiple requests for this song, so

here it is in it's entirety, including the choppy little bass solo.

 

Here we go

 

*****

Intro

*****

 

Ok, the guitar jams 7 measures before the bass comes in. these are

measures 7 and 8 of the intro:

 

1 & 2 & 3 & 4 & 1 & 2 & 3 & 4 &

G|-----------------------------------|-----------------------------------|

D|-----------------------------------|-----------------------------------|

A|--------------/8-------3-------5---|-----------------------------------|

E|-----------------------------------|---3-------------------------------|

 

*****

Verse

*****

 

 

1 & 2 & 3 & 4 & 1 & 2 & 3 & 4 &

G|-----------------------------------|-----------------------------------|

D|---------------3-------------------|-----------------%-----------------|

A|-----------------------3-------5---|-----------------%-----------------|

E|---3-------------------------------|-----------------------------------|

 

 

1 & 2 & 3 & 4 & 1 & 2 & 3 & 4 &

G|-----------------------------------|-----------------------------------|

D|-----------------%-----------------|-----------------%-----------------|

A|-----------------%-----------------|-----------------%-----------------|

E|-----------------------------------|-----------------------------------|

 

 

This same line is repeated thru the first section of the first verse.

They then change to alternating between the 3rd fret on the D string

and the 5th fret on the E string, as follows (repeated):

 

 

1 & 2 & 3 & 4 & 1 & 2 & 3 & 4 &

G|-----------------------------------|-----------------------------------|

D|-----------------------------------|---------------3-------------------|

A|-----------------------3-------5---|-----------------------3-------5---|

E|---3-----------5-------------------|---3-------------------------------|

 

 

Right before the chorus section, they end the verse like this:

_3_

| | |

1 & 2 & 3 & 4 & 1 & 2 & 3 & 4 &

G|-----------------------------------|-----------------------------------|

D|-----------------------------------|---3-3-3-3-3-3-3-------------------|

A|-----------------------3-------5---|-----------------------------------|

E|---3-----------5-------------------|-----------------------------------|

 

******

Chorus

******

 

 

1 & 2 & 3 & 4 & 1 & 2 & 3 & 4 &

G|-----------------------------------|-----------------------------------|

D|-----------9---------------7-------|----------10---------7-7-X-9-7-----|

A|-------9---------------7-----------|-------------------------------9---|

E|---7-----------5-------------------|---8-----------7-------------------|

 

"People stare...."

 

 

1 & 2 & 3 & 4 & 1 & 2 & 3 & 4 &

G|-----------------------------------|-----------------------------------|

D|-----------------------------------|-----------9-----------------------|

A|-----------------------------------|-------9-------------------9-------|

E|---5---5-5-5---5-------5---5---5---|---7-----------7-------7-------7---|

 

1 & 2 & 3 & 4 & 1 & 2 & 3 & 4 &

G|-----------------------------------|-----------------------------------|

D|-----------------------------------|-----------------------------------|

A|-----------------------------------|-----------------------------------|

E|-----------------------------------|-----------------------------------|

 

 

***************

Quiet Interlude

***************

 

 

1 & 2 & 3 & 4 & 1 & 2 & 3 & 4 &

G|-----------------------------------|-----------------------------------|

D|-----------------------------------|-----------------------------------|

A|-----------------------3-------5---|--------------/8-------3-------5---|

E|---3-----------5-------------------|---3-------------------------------|

 

1 & 2 & 3 & 4 & 1 & 2 & 3 & 4 &

G|-----------------------------------|-----------------------------------|

D|-----------------------------------|-----------------------------------|

A|-----------------------3-------5---|--------------/8-------3-------5---|

E|---3-----------5-------------------|---3-------------------------------|

 

1 & 2 & 3 & 4 & 1 & 2 & 3 & 4 &

G|-----------------------------------|-----------------------------------|

D|-----------------------------------|-----------------------------------|

A|-----------------------3-------5---|--------------/8-------3-------5---|

E|---3-----------5-------------------|---3-------------------------------|

 

1 & 2 & 3 & 4 & 1 & 2 & 3 & 4 &

G|-----------------------------------|-------------------3h5-X-----------|

D|-----------------------------------|---------------3h5-------3-3h5-----|

A|-----------------------3-------5---|-------------------------------5---|

E|---3-----------5-------------------|---3-------------------------------|

 

1 & 2 & 3 & 4 & 1 & 2 & 3 & 4 &

G|-----------------------------------|-----------------------------------|

D|-----------------------------------|-----------------------------------|

A|-----------------------3-------5---|--------------/8-------3-------5---|

E|---3-----------5-------------------|---3-------------------------------|

 

1 & 2 & 3 & 4 & 1 & 2 & 3 & 4 &

G|-----------------------------------|-------------------3h5-5-----------|

D|-----------------------------------|---------------3h5-------3-5-------|

A|-----------------------3-------5---|-------------------------------5---|

E|---3-----------5-------------------|---3-------------------------------|

 

1 & 2 & 3 & 4 & 1 & 2 & 3 & 4 &

G|-----------------------------------|-----------------------------------|

D|-----------------------------------|-----------------------------------|

A|-----------------------3-------5---|--------------/8-------3-------5---|

E|---3-----------5-------------------|---3-------------------------------|

 

1 & 2 & 3 & 4 & 1 & 2 & 3 & 4 &

G|-----------------------------------|-----------------------------------|

D|-----------------------------------|-------3-3-3---3-3---3-3---3h5-----|

A|-----------------------3-------5---|-----------------------------------|

E|---3-----------5-------------------|---3-------------------------------|

 

 

 

Bass solo section:

 

_______3_______ _______3_______

| | | | | |

1 & 2 & 3 & 4 & 1 & 2 & 3 & 4 e & a

G|------------------10---------------|---------------11h12--10-----------|

D|----------12--------------------12-|----------12--------------10101012-|

A|--10-------------------------------|--10-------------------------------|

E|-----------------------------------|-----------------------------------|

^

_______3_______ _______3_______

| | | | | |

1 & 2 & 3 & 4 & 1 & 2 & 3 & 4 e &

G|------------------10---------------|------------------12--10-----------|

D|----------12--------------------12-|----------12--------------101012---|

A|--10-------------------------------|--10-------------------------------|

E|-----------------------------------|-----------------------------------|

^ ^

_______3_______ _______3_______

| | | | | |

1 & 2 & 3 & 4 & 1 & 2 & 3 & 4 e & a

G|------------------10---------------|---------------11h12--10-----------|

D|----------12--------------------12-|----------12--------------10101012-|

A|--10-------------------------------|--10-------------------------------|

E|-----------------------------------|-----------------------------------|

^

_______3_______ _______3_______ ___3___

| | | | | | | |

1 & 2 & 3 & 4 & 1 & 2 & 3 & 4 &

G|------------------10---------------|------------------10--11--12-------|

D|----------12--------------------12-|----------12-----------------------|

A|--10-------------------------------|--10-------------------------------|

E|-----------------------------------|-----------------------------------|

^ ^ ^ ^

 

The above is repeated, improvised on, etc..

 

 

Boogie-woogie part:

 

1 & 2 & 3 & 4 & 1 & 2 & 3 & 4 &

G|-----------------------------------|-----------------------------------|

D|-------5-------2-------3-------4---|-----------------%-----------------|

A|-----------------------------------|-----------------%-----------------|

E|---3-------0-------1-------2-------|-----------------------------------|

 

 

1 & 2 & 3 & 4 & 1 & 2 & 3 & 4 &

G|-----------------------------------|-----------------------------------|

D|-----------------%-----------------|-------5-------8-------7-------6---|

A|-----------------%-----------------|-----------------------------------|

E|-----------------------------------|---3------/6-------5-------4-------|

 

 

 

Pretty cool song. Hope you guys like it.

 

Cody-

 

 

 

Return to my DMB bass tabs page

The Tablature is Copyright its respective owners.

Sign Up For My Newsletter
Subscribe | Unsubscribe

Site Map | Disclaimer | Privacy Policy | Media Kit | Submissions/Corrections

Website © 2000-2014 mattsmusicpage.com. All rights reserved.

Legal & DMCA: Matt's Music Page has been providing lyrics and tabs in a legal way, paying royalties each year to a few organizations. Then, all lyrics and tabs were removed from the site. Now, there's a new owner to the site, which purchased it August 26, 2014, and he is in negotiation to obtain licensing from BMI at the moment. If you have a specific DMCA request -- please do not hesitate to contact me via the contact button on top. I will do my very best to keep this site fully legal.

Get our toolbar!