Your One-Stop Source For
Music Lyrics
Bass and Guitar Tabs
and More...
Music Lyrics Bass and Guitar Tabs

 

The Tabs Are Below

Learn To Read Tab
Chords Handbook
Corrections & Additions
Get Official Tab
DMB tabs @ 911Tabs

Long Black Veil

By: Dill, Danny and Wilkin, Marijohn

Transcribed by: AJ Guerra

latinoheatxxl@aol.com

 

A very easy song, but even though the tempo is slow it just sounds so good, and is still fun to play..

 

The Bass does not come in till the second verse (1:24)

 

Intro

~~~~~

G|--------------------|

D|--10-------10----10-|

A|----10--------10----|

E|-------8-8----------|

 

into the verse

~~~~~~~~~~~~

G|---9-10-9----------9-10-9---------|

D|-----------10--------------10-----|

A|-------------10--------------10---|

E|-8--------------8-----------------|

 

and this is the verse with the variation

~~~~~~~~~~~~~~~~~~~~~~~~~~~~~~~~

G|---9-10-9-9----------------------9-10--9--------|

D|-----------------------------------------10-----|

A|-------------10-10-10-8-8-8----------------10---|

E|-8----------------------------8---------------8-|

 

The Chorus: Part 1

~~~~~~~~~~~~~~~~

G|-------------------------------------|

D|-------------------------------------|

A|---3-------3-3-----3------3-3--------|

E|-1---0---1-------1---0--1------------|

 

The Chourus: Part 2

~~~~~~~~~~~~~~~~~

G|-----------------------|

D|-----------------------|

A|--3-------3-3----------|

E|-----1-1-------1-1-3---|

 

Then Back to Verse, thats it, pretty easy, but still nice..

 

(1:24) Verse

Chorus1

Chorus2

Verse

Chorus1

Chorus2

Long Jam on Verse

Chorus1

Chorus2

Then Verse to End..

 

Return to my DMB bass tabs page

The Tablature is Copyright its respective owners.

Sign Up For My Newsletter
Subscribe | Unsubscribe

Site Map | Disclaimer | Privacy Policy | Media Kit | Submissions/Corrections

Website © 2000-2014 mattsmusicpage.com. All rights reserved.

Legal & DMCA: Matt's Music Page has been providing lyrics and tabs in a legal way, paying royalties each year to a few organizations. Then, all lyrics and tabs were removed from the site. Now, there's a new owner to the site, which purchased it August 26, 2014, and he is in negotiation to obtain licensing from BMI at the moment. If you have a specific DMCA request -- please do not hesitate to contact me via the contact button on top. I will do my very best to keep this site fully legal.

Get our toolbar!