Your One-Stop Source For
Music Lyrics
Bass and Guitar Tabs
and More...
Music Lyrics Bass and Guitar Tabs

 

The Tabs Are Below

Learn To Read Tab
Chords Handbook
Corrections & Additions
Get Official Tab
DMB tabs @ 911Tabs

Song: Jimi Thing

CD: Under the Table and Dreaming

Dave Matthews Band

Tabbed by: krbass Kyle Linder kylebassman2005@yahoo.com

 

Verse:

G:------------------------------------

D:------------------------------------

A:----7----7------9---------------7---

E:7h9---9------9---3---5-55---7h9----9

 

Right before the chorus play

G:------------

D:------------

A:7-/9\7---5/7

E:-------7----

 

Chorus:

G:------------------------

D:---------------12---10--

A:--5h7p5-----------------

E:5-------5—5/10----8----5

 

G:-----------------------------------------

D:--7---5---4---3---2----------------------

A:-------------------------77--------77----

E:5---3---2---1---0----55-----77—55------77

 

Old 1st Live Jam add improv stefan does a ton of stuff

G:----------------

D:----------------

A:----------------

E:3-5/10-8-8---7-5

 

Old 2nd Jam add improv these are on all their live cd’s

G:-------------- through Chicago

D:-----12—10----

A:--------------

E:3/10---8---7-5

 

New 1st Jam

G:----------------

D:----------------

A:----------------

E:3-5/12-10-10-9-7

 

New 2nd Jam

G:----------------- these jams are from any of their live stuff

D:-----14----12---- from 2000 on

A:-----------------

E:3/12----10----9-7

 

New York Jam

G:----------------------- add improv on the last part on the

D:------16--------------- A and E strings

A:----14—14\7-5-7--------

E:3/12------------5-3-5-3

 

Another part of 1st jam

G:-----------------

D:-----------------

A:---------55-66-77

E:33-44-55---------

 

2nd Jam he does something a little different

G:-----11-10--8

D:-------------

A:-------------

E:3/12-10-9---7

 

Then he goes back to the normal 2nd jam

 

 

Return to my DMB bass tabs page

The Tablature is Copyright its respective owners.

Sign Up For My Newsletter
Subscribe | Unsubscribe

Site Map | Disclaimer | Privacy Policy | Media Kit | Submissions/Corrections

Website © 2000-2014 mattsmusicpage.com. All rights reserved.

Legal & DMCA: Matt's Music Page has been providing lyrics and tabs in a legal way, paying royalties each year to a few organizations. Then, all lyrics and tabs were removed from the site. Now, there's a new owner to the site, which purchased it August 26, 2014, and he is in negotiation to obtain licensing from BMI at the moment. If you have a specific DMCA request -- please do not hesitate to contact me via the contact button on top. I will do my very best to keep this site fully legal.

Get our toolbar!

 

VINTAGE SORRENTO MUSIC JEWELRY BOX
$45.0
VINTAGE SORRENTO MUSIC JEWELRY BOX picture


VINTAGE LACQUERED MUSIC BOX JAPAN
$25.99
VINTAGE LACQUERED MUSIC BOX JAPAN picture


Vintage Kehlsteinhaus Bavaria Germany Colorscope Cow Bell View Master Music Box
$8.99
Vintage Kehlsteinhaus Bavaria Germany Colorscope Cow Bell View Master Music Box picture


VINTAGE SCHMIDT Signed Collectible Musical Turning Clown
$9.99
VINTAGE  SCHMIDT Signed Collectible Musical Turning Clown picture


Vintage - Linen - Postcard - Stage - Radio City Music Hall - New York City
$3.75
Vintage - Linen - Postcard - Stage - Radio City Music Hall - New York City   picture