Your One-Stop Source For
Music Lyrics
Bass and Guitar Tabs
and More...
Music Lyrics Bass and Guitar Tabs

 

The Tabs Are Below

Learn To Read Tab
Chords Handbook
Corrections & Additions
Get Official Tab
DMB tabs @ 911Tabs

tabbed by jhp4c2@mizzou.edu

 

Intro:

E----------------------------10--12-

B--------------10----10--12---------

G-9----9-11-12----12----------------

D---12------------------------------

A-----------------------------------

E-----------------------------------

 

 

Verse:

E---------------------------------

B---------------------------------

G---------------------------------

D---9-9/---5-5---5-5---4-4--------

A---7-7/---3-3---2-2---2-2--------

E---------------------------------

 

 

Chorus, "Things seem brighter..."

E---------------------

B------1--------------

G--0---0---0---4------

D--2---2---0---4------

A--2---3---2---2------

E--0-------3----------

 

Or Em C G Bm

 

 

"No way..."

E-------------------------------

B-----1-----1-----1--3----------

G--0--0--0--0--0--0--4----------

D--0--2--0--2--0--2--4----------

A--2--3--2--3--2--3--2----------

E--3-----3-----3----------------

 

 

Ending "No way out...."

E------2----3----5--- ---------------

B------3----3----3--- -----1---------

G------2----2----2--- --0--0--0--4---

D------0----0----0--- --2--2--0--4---

A-------------------- --2--3--2--2---

E-------------------- --0-----3------

No Way Out

 

 

Alternate intro:

E-----7/------3-----3-----2------------------------

B-----8/------1-----0-----3-----------------------

G-----9/------0-----0-----4------------------------

D-----9/------2-----x-----4-----------------------

A-----7/---3-----2-----2---------------------------

E--0-------------------------------------------

 

 

Alternate verse:

E--3---3---3---2----------------------------------

B--0---1---0---3----------------------------------

G--0---0---0---4----------------------------------

D--2---2---x---4----------------------------------

A--2---3---2---2----------------------------------

E--0-------------------------------------------

 

 

Chords during live jam (strumming):

E---2----2------3----3------------------------

B---3----3------3----3------------------------

G---0h2--2------0h2--2------------------------

D---0----0------0----0------------------------

A---------------------------------------------

E---------------------------------------------

 

 

 

Return to my to my DMB tabs page

The Tablature is Copyright its respective owners.

Sign Up For My Newsletter
Subscribe | Unsubscribe

Site Map | Disclaimer | Privacy Policy | Media Kit | Submissions/Corrections

Website © 2000-2014 mattsmusicpage.com. All rights reserved.

Get our toolbar!