Your One-Stop Source For
Music Lyrics
Bass and Guitar Tabs
and More...
>Music Lyrics Bass and Guitar Tabs

 

The Tabs Are Below

Learn To Read Tab
Chords Handbook
Corrections & Additions
Get Official Tab
DMB tabs @ 911Tabs

DMB - I Did It

 

verse

G---------------------------------|--------------------------|

D---------------------------------|--------------------------|

A----------3\---------------------|--------------------------|

E---------------------------------|--------------------------|

B---3--3------------1---------3---|---5---1----3-----3-3-----|

 

The chorus is some thing like this but you might want to listen to it

 

G---------------2----------2------2-----------------2------------2-------------2-|

D--------------------------------------------------------------------------------|

A--------------------------------------------------------------------------------|

E-----5--5----5-----5----5---5--5----5-----5----5-----5----5---5----5--5--5--5/17-|

 

unison lick

 

G----------------4--2-------------|------------------------------------|

D---------4--2---------0-----5----|---4--------4--5--4--5--------------|

A------2------------------0-------|------4--5--------------0-----------|

E---------------------------------|------------------------------------|

b---------------------------------|------------------------------------|

Thats it

 

 

Return to my DMB bass tabs page

The Tablature is Copyright its respective owners.

Sign Up For My Newsletter
Subscribe | Unsubscribe

Site Map | Disclaimer | Privacy Policy | Media Kit | Submissions/Corrections

Website © 2000-2014 mattsmusicpage.com. All rights reserved.

Legal & DMCA: Matt's Music Page has been providing lyrics and tabs in a legal way, paying royalties each year to a few organizations. Then, all lyrics and tabs were removed from the site. Now, there's a new owner to the site, which purchased it August 26, 2014, and he is in negotiation to obtain licensing from BMI at the moment. If you have a specific DMCA request -- please do not hesitate to contact me via the contact button on top. I will do my very best to keep this site fully legal.

Get our toolbar!

 

Gibson Guitars - Slash - 1992 - Print Advertisement
$9.95
Gibson Guitars - Slash - 1992 - Print Advertisement picture


Gibson Guitars - Jimi Hendrix- - 1992- Print Advertisement
$9.95
Gibson Guitars - Jimi Hendrix-  - 1992-  Print Advertisement picture


LOT OF MISC Vintage LOOPSTICK ANTENNA GUITAR AMP Radio switch PARTS LOT
$58.0
LOT OF MISC Vintage LOOPSTICK  ANTENNA GUITAR AMP Radio switch PARTS LOT picture


Valentine~Colonial Couple Serenaded By Musician~Guitar~Powdered Hair~Emb~Germany
$6.5
Valentine~Colonial Couple Serenaded By Musician~Guitar~Powdered Hair~Emb~Germany picture


Silver w/CZ "ASHLEY" Charm Metal Keychain w/Ring New in Box, Guitar Pick
$7.95
Silver w/CZ