Your One-Stop Source For
Music Lyrics
Bass and Guitar Tabs
and More...
Music Lyrics Bass and Guitar Tabs

 

The Tabs Are Below

Learn To Read Tab
Chords Handbook
Corrections & Additions
Get Official Tab
DMB tabs @ 911Tabs

Hi-o! Here is a great song. Play it with gusto. Play it with five strings. Have a good time! (P.S. this is on listener supported)

 

^=hold note

High intro thing:

]----16-14^\-[

]-16---------[

]------------[

]------------[

]------------[

Main part:

]----------------[

]----------------[

]----------------[

]----/7\5\3-2----[

]-3^-----------5-[

Right into the main chorus:

]----------------------------------[

]----------------------------------[

]----------------------------------[

]-/7-7\5-5\3-3-3-3/9p7-7\5-5\3-3-3-[

]----------------------------------[

"..stop.." (-)="..blindly.."

]------------------------------------[

]------------------------------------[

]------------------------------------[

]-3--3/7\5-7\3/5-7\3/5-1-1/8-8-(7-5)-[

]------------------------------------[

Thats it! Pretty easy. The end jam just imporov on the main chorus and uses some octaves or something. The very last part is as follows:

]---------------------------[

]---------------------------[

]---------------------------[

]-7\3/5-5\1-1/8-8-----/7\5^-[

]------------------3^-------[

Thats it for sure now.

 

 

Return to my DMB bass tabs page

The Tablature is Copyright its respective owners.

Sign Up For My Newsletter
Subscribe | Unsubscribe

Site Map | Disclaimer | Privacy Policy | Media Kit | Submissions/Corrections

Website © 2000-2014 mattsmusicpage.com. All rights reserved.

Legal & DMCA: Matt's Music Page has been providing lyrics and tabs in a legal way, paying royalties each year to a few organizations. Then, all lyrics and tabs were removed from the site. Now, there's a new owner to the site, which purchased it August 26, 2014, and he is in negotiation to obtain licensing from BMI at the moment. If you have a specific DMCA request -- please do not hesitate to contact me via the contact button on top. I will do my very best to keep this site fully legal.

Get our toolbar!

 

® Elvis Presley Figure with Bars & Vinyl Record Stage
$23.99
® Elvis Presley Figure with Bars & Vinyl Record Stage picture


THE LONGINES SYMPHONETTE "SENTIMENTAL JOURNEY" VINTAGE VINYL ALBUM RECORD BOWL
$19.99
 THE LONGINES SYMPHONETTE


African Ghana Medley Vinyl Phono Record Beads (8mm) Ghana
$15.0
African Ghana Medley Vinyl Phono Record Beads (8mm)  Ghana picture


African Yellow Vinyl Phono Record Beads (6mm) Ghana
$12.0
African Yellow Vinyl Phono Record Beads (6mm)  Ghana picture


African Vintage Vinyl Phono Record Beads (7mm - Set of 4) Ghana
$69.0
African Vintage Vinyl Phono Record Beads (7mm - Set of 4)  Ghana picture