Your One-Stop Source For
Music Lyrics
Bass and Guitar Tabs
and More...
Music Lyrics Bass and Guitar Tabs

 

The Tabs Are Below

Learn To Read Tab
Chords Handbook
Corrections & Additions
Get Official Tab
DMB tabs @ 911Tabs

Drive In, Drive Out

By: Dave Matthews Band

Transcribed by:

LaTiNoHeaTXXL@aol.com

 

 

The bass enters at the end of each guitar lick in the intro.

 

 

 

G|--------------|

D|--------------|

A|--------------|

E|----3-3-5-----| X4

 

::

 

G|-----6-5----------------------------|

D|------------5 5-4 4--------------------|

A|---------------------- 5-5--4--------| This is done the WHOLE Verse

E|-5--------------------------------5--|

 

 

 

::

"Drive In Drive Out..."

 

A|-------------------------------------|

E|-3-3-3-/-7-7-7--5-5-5-5-5-5| x4

 

Thats the meat of it, but you can add filss to it and

Add some variation in there to liven it up..

 

::

"Dont't Care...."

 

A|------------------------------|

E|--5--/-10--8-8-8--5----| X4

 

and then into

 

G|-----------------------|

D|--5-4----------------|

A|------5-44-5-4-0--| x3

E|-----------------------|

 

then to the chorus again..

A|-------------------------------------|

E|-3-3-3-/-7-7-7--5-5-5-5-5-5| x4

 

back to...

 

 

G|-----------------------|

D|--5-4----------------|

A|------5-44-5-4-0--| x3

E|-----------------------|

 

::

 

::

 

============================================

Then the guitar, violin, and sax go into a climb,

this is the coolest part.. The Bass Does a raise and fall..

it sounds hard, but when I figured it out, i was amazed how

easy it was...

 

G|--(5)--1-/-2-/-3--/-14--10---7--------|

D|----------------------------------------|

 

Through that whole part you should just continuously slide..

You dont's necesarrily have to hit the sting right at those frets,

but somewhere close to make it sound like Stefan.. but anything

you hit really will sound good..

 

::

I call it that, beacuse thats wut it sounds like..

 

A|------------------------------------------------|

E|--3-33-33-3-33-33--x2---5-55-55-5-55-55-x2------|

 

then

G|----3-2-----------------------------3-2--------------------------------6-5----------------------------5-6-------------------------|

D|---------3-3-2-2------------------------3-3-2-2---------------------------5-5-4-4------------------------5-5-4-4------------------|

A|--------------------3-3-2---------------------------3-3-2----------------------------5-5-4--------------------------5-5-4---------|

E|--3-------------------------3----3--------------------------3-------5-------------------------5----5--------------------------5---|

 

then ::

 

::

 

::

 

G|----------------------------------------------------------------|

D|--------7--5--4-------------------------------------------7-----|

A|-----7-------------7--5---3--2-----------5------5------7--------|

E|--5-----------------------------------3------3------5-----------|

 

Return to my DMB bass tabs page

The Tablature is Copyright its respective owners.

Sign Up For My Newsletter
Subscribe | Unsubscribe

Site Map | Disclaimer | Privacy Policy | Media Kit | Submissions/Corrections

Website © 2000-2014 mattsmusicpage.com. All rights reserved.

Legal & DMCA: Matt's Music Page has been providing lyrics and tabs in a legal way, paying royalties each year to a few organizations. Then, all lyrics and tabs were removed from the site. Now, there's a new owner to the site, which purchased it August 26, 2014, and he is in negotiation to obtain licensing from BMI at the moment. If you have a specific DMCA request -- please do not hesitate to contact me via the contact button on top. I will do my very best to keep this site fully legal.

Get our toolbar!