Your One-Stop Source For
Music Lyrics
Bass and Guitar Tabs
and More...
Music Lyrics Bass and Guitar Tabs

 

The Tabs Are Below

Learn To Read Tab
Chords Handbook
Corrections & Additions
Get Official Tab
DMB tabs @ 911Tabs

Great song of the new album "busted stuff". its super fun but some parts are hard to hear so just try ure best!!

00:21:

]----------------------------------------[

]----------------------------------------[

]-5-5-55--5-5-55--5-5-55--5-5-55--5-5-55-[

]----------------------------------------[

]----------------------------------------[

main verse/chorus (mess around with it)

]--------------[

]--------------[

]-5-5-55----00-[

]--------2-3---[

]--------------[

high part that u can barely hear at 1:38 and 3:35 (approx.)

]-----------------------------11-9-------------------------------[

]----------------------------------11-9--------------------------[

]-5-5-55-5-5-5/9-10-10-12-12------------11-9-----------00-5-5-55-[

]--------------------------------------------11-9--2-3-----------[

]----------------------------------------------------------------[

breakdonw/"..bended knees.."(mess lots)

]---------------------------------------[

]---------------------------------------[

]----9-9-9-----9---9\-----5-5-----5---5-[

]-/7-------7-7---7----3-3-----3-3---3---[

]---------------------------------------[

soft singing part 4:48 (*=hold note)

]----7--------12-11*------7--------4------5--[

]---7-7------------------7-7--------4------5-[

]-5-----5/10----------5-------5--2------3----[

]--------------------------------------------[

]--------------------------------------------[

jam after slow part

]------------------------------------------------------------------[

]------------------5------9-----5-----9-----5-----9----------------[

]------------------------------------------------------------------[

]--------------3-3---3/7----3-3---3/7---3-3---3/7----3-3/8p7p5-----[

]-3-3-33-3-5-6-------------------------------------------------3-3-[

ok, on the free dvd that comes with the new cd, this song is played, and around 6:40

there is a wicked little part by stefan, this man is seriously talented and double jointed as a mofo (watch it in slo-mo) so here it is its also way fast:

]-------------------------------------------------[

]-------------------------------------------------[

]-------------------------------------------------[

]-------------------------------------------------[

]-3-3-3/4-4-4\3/8p7h10-7h8p7\5h7-5h7-5h7-5p4p\3-3-[

super slow part til the end (^=harmonic)

]--------------------------8^------8^----------------------[

]----------------------------------------------------------[

]----------------------------------------------------------[

]----------------------------------------------------------[

]-3-3-3--3-3-3-3-5-6-8-8-8----8-8------6-6-6-5-5-5-4-3-3-3-[

lotsa other little nuances but i cant tab them all, keep it real brotha's and sista's

p.s. all credit to the dmb

 

 

 

 

Return to my DMB bass tabs page

The Tablature is Copyright its respective owners.

Sign Up For My Newsletter
Subscribe | Unsubscribe

Site Map | Disclaimer | Privacy Policy | Media Kit | Submissions/Corrections

Website © 2000-2014 mattsmusicpage.com. All rights reserved.

Legal & DMCA: Matt's Music Page has been providing lyrics and tabs in a legal way, paying royalties each year to a few organizations. Then, all lyrics and tabs were removed from the site. Now, there's a new owner to the site, which purchased it August 26, 2014, and he is in negotiation to obtain licensing from BMI at the moment. If you have a specific DMCA request -- please do not hesitate to contact me via the contact button on top. I will do my very best to keep this site fully legal.

Get our toolbar!

 

Hard Rock Pin Las Vegas 4th of july red white and blue guitar
$5.0
Hard Rock Pin Las Vegas 4th of july red white and blue guitar picture


Hard Rock Pin Hollywood Fl Bell Girl with dice luggage and guitar
$5.0
Hard Rock Pin Hollywood Fl Bell Girl with dice luggage and guitar picture


Hard Rock Pin Las Vegas King of Clubs Guitar rare only 3 lines of info on back
$5.0
Hard Rock Pin Las Vegas King of Clubs Guitar rare only 3 lines of info on back picture


Hard Rock Pin Edmonton guitar pin
$5.0
Hard Rock Pin Edmonton guitar pin picture


Lladro Guitar Boy #4614 - Beautiful Piece of Lladro
$109.0
Lladro Guitar Boy #4614 - Beautiful Piece of Lladro picture