Your One-Stop Source For
Music Lyrics
Bass and Guitar Tabs
and More...
Music Lyrics Bass and Guitar Tabs

 

The Tabs Are Below

Learn To Read Tab
Chords Handbook
Corrections & Additions
Get Official Tab
DMB tabs @ 911Tabs

Tabbed by jhp4c2@mizzou.edu

 

 

 

Drop D tuning

 

Intro D&T:

E--------------------------

B--------------------------

G--------------------------

D--------------------------

A--3h5-5----5---5---5------

D---------0---0---0---0----

 

 

Verse D&T

E-----------------------------------------------

B-----------------------------------------------

G-----------------------------------------------

D----------------------------------------------- etc...

A----5----5----5---5---5---5---5----5---3h5-5---

D--0---0----0----0---4---4---5---5--------------

 

 

 

Verse with band

E------------- -------------------

B------------- -------------------

G------7-7-7-- --7--7------7-7-7--

D------0-0-0-- --0--5------0-0-0--

A--3/5-5-5-5-- --0--5--3/5-5-5-5--

D--0---0-0-0-- --4--5--0---0-0-0--

 

 

 

"I'm on bended knee..."

E--------------

B--3-----------

G--4---7---7---

D--4---5---0---

A--2---5---5---

D------5---0---

 

 

 

Return to my to my DMB tabs page

The Tablature is Copyright its respective owners.

Sign Up For My Newsletter
Subscribe | Unsubscribe

Site Map | Disclaimer | Privacy Policy | Media Kit | Submissions/Corrections

Website © 2000-2014 mattsmusicpage.com. All rights reserved.

Legal & DMCA: Matt's Music Page has been providing lyrics and tabs in a legal way, paying royalties each year to a few organizations. Then, all lyrics and tabs were removed from the site. Now, there's a new owner to the site, which purchased it August 26, 2014, and he is in negotiation to obtain licensing from BMI at the moment. If you have a specific DMCA request -- please do not hesitate to contact me via the contact button on top. I will do my very best to keep this site fully legal.

Get our toolbar!