Your One-Stop Source For
Music Lyrics
Bass and Guitar Tabs
and More...
Music Lyrics Bass and Guitar Tabs

 

The Tabs Are Below

Learn To Read Tab
Chords Handbook
Corrections & Additions
Get Official Tab
DMB tabs @ 911Tabs

tabbed by jhp4c2@mizzou.edu

 

 

Angel

 

 

Intro:

E--------------------------------------------------------

B--------------------------------------------------------

G-------4/6--4---------------x----------4/6-------------- etc.

D-------4/6--4---------------x----------4/6--------------

A—6/2----------4/6-4—2/4--2--x--2--4--2------4/6-4-2/4-2-

E-------------------------0-----0------------------------

 

 

“It’s lonely far from you…”

E----------------------------------

B----------------------------------

G-----------4/6--4-----------------

D--4---2----4/6--4----------------- etc.

A--4---2--2---------4/6--4—2/4--2--

E--2---0---------------------------

 

 

“Why do I beg like a child…”

E-----------------------------------------------

B-----------------------------------------------

G--------------------------0-------------4/6--4- etc.

D--3--4--4---3-4---4---2---1---4--2------4/6--4-

A--4—-6\-4---4—6\--4---2---1---4--2---2---------

E--------2---------2---0---x---2--0-------------

 

 

Return to my to my DMB tabs page

The Tablature is Copyright its respective owners.

Sign Up For My Newsletter
Subscribe | Unsubscribe

Site Map | Disclaimer | Privacy Policy | Media Kit | Submissions/Corrections

Website © 2000-2014 mattsmusicpage.com. All rights reserved.

Legal & DMCA: Matt's Music Page has been providing lyrics and tabs in a legal way, paying royalties each year to a few organizations. Then, all lyrics and tabs were removed from the site. Now, there's a new owner to the site, which purchased it August 26, 2014, and he is in negotiation to obtain licensing from BMI at the moment. If you have a specific DMCA request -- please do not hesitate to contact me via the contact button on top. I will do my very best to keep this site fully legal.

Get our toolbar!