Your One-Stop Source For
Music Lyrics
Bass and Guitar Tabs
and More...
Music Lyrics Bass and Guitar Tabs

 

The Tabs Are Below

Learn To Read Tab
Chords Handbook
Corrections & Additions
Get Official Tab
DMB tabs @ 911Tabs

All Along the Watchtower

By: Dylan, Bob

Transcribed by: Sean Spicer

driver8@phy.duke.edu

 

 

Am G F

 

Intro

 

There must be....

e --------------------------------------------------

B --------------------------------------------------

G --------------------------------------------------

D --------------------------------------------------

A --------------------------------------------------

E --/5--0-3--0-3--0-1-1--0h1-1--0h3-3--0--5---------

 

The rest you can figure out...

 

He also plays, especially during Leroi's solo...

 

e-------------|

B---1----3----|

G---0----0----|

D---2----4----|

A---3----5----|

E-------------|

 

 

Return to my to my DMB tabs page

The Tablature is Copyright its respective owners.

Sign Up For My Newsletter
Subscribe | Unsubscribe

Site Map | Disclaimer | Privacy Policy | Media Kit | Submissions/Corrections

Website © 2000-2014 mattsmusicpage.com. All rights reserved.

Legal & DMCA: Matt's Music Page has been providing lyrics and tabs in a legal way, paying royalties each year to a few organizations. Then, all lyrics and tabs were removed from the site. Now, there's a new owner to the site, which purchased it August 26, 2014, and he is in negotiation to obtain licensing from BMI at the moment. If you have a specific DMCA request -- please do not hesitate to contact me via the contact button on top. I will do my very best to keep this site fully legal.

Get our toolbar!