Your One-Stop Source For
Music Lyrics
Bass and Guitar Tabs
and More...
>Music Lyrics Bass and Guitar Tabs

 

The Tabs Are Below

Learn To Read Tab
Chords Handbook
Corrections & Additions
Get Official Tab
DMB tabs @ 911Tabs

After Her

By: Dave Matthews Band

Transcribed by: Brian Yee

brian80@usa.net

 

 

--------------------------------

--------------------------------

--------------------------------

------------8---6--4-------6----

----------6---4--------8-4------

--------4--------8---6------8---

 

 

 

winter's cold......

 

---------------------------------------------------------------------

---------------------------------------------------------------------

--------------6/8--8--8--8--X--X--8--8--8--X--X--8--8--8--X--X-------

-----------6--6/8--X--X--X--X--X--X--X--X--X--X--8--8--8--X--X-------

-----------6-------4--4--4--X--X--X--X--X--X--X--6--6--6--X--X-------

-----------4----------------------6--6--6--X--X----------------------

 

 

 

 

 

no matter what's in side......

 

-----------------X-X-X-X-----------X-X-X-X-----------X-X-X-X--------------------

-----------------X-X-X-X---4--4-4--X-X-X-X-----------X-X-X-X--------------------

---------5--5-5--X-X-X-X---5--5-5--X-X-X-X---6--6-6--X-X-X-X----8--8------------

---------6--6-6--X-X-X-X---3--5-5--X-X-X-X---6--6-6--X-X-X-X----8--8------------

---------6--6-6--X-X-X-X---3--3-3--X-X-X-X---4--4-4--X-X-X-X----6--6------------

---------4--4-4--X-X-X-X-----------X-X-X-X-----------X-X-X-X--------------------

 

 

Return to my to my DMB tabs page

The Tablature is Copyright its respective owners.

Sign Up For My Newsletter
Subscribe | Unsubscribe

Site Map | Disclaimer | Privacy Policy | Media Kit | Submissions/Corrections

Website © 2000-2014 mattsmusicpage.com. All rights reserved.

Legal & DMCA: Matt's Music Page has been providing lyrics and tabs in a legal way, paying royalties each year to a few organizations. Then, all lyrics and tabs were removed from the site. Now, there's a new owner to the site, which purchased it August 26, 2014, and he is in negotiation to obtain licensing from BMI at the moment. If you have a specific DMCA request -- please do not hesitate to contact me via the contact button on top. I will do my very best to keep this site fully legal.

Get our toolbar!

 

USA My old Kentucky home lyrics 1920s PC
$9.0
USA My old Kentucky home lyrics 1920s PC picture


Lyric Theater Stuart Florida circa 1940
$4.98
Lyric Theater Stuart Florida circa 1940 picture


Vintage 1960's Vinyl Record Holder Stand 40 DISK CAPACITY 33, 45, 78-RPM
$20.0
Vintage 1960's Vinyl Record Holder Stand 40 DISK CAPACITY 33, 45, 78-RPM picture


Get your kicks ROUTE 66 Song Lyrics metal sign for Biker motorcycle STURGIS fans
$12.99
Get your kicks ROUTE 66 Song Lyrics metal sign for Biker motorcycle STURGIS fans picture


1905 Ad Henry F Miller Sons Piano Co Boston Small Lyric Grand $650
$7.75
1905  Ad Henry F Miller Sons Piano Co Boston Small Lyric Grand $650 picture