Your One-Stop Source For
Music Lyrics
Bass and Guitar Tabs
and More...
Music Lyrics Bass and Guitar Tabs

 

The Tabs Are Below

Learn To Read Tab
Chords Handbook
Corrections & Additions
Get Official Tab
DMB tabs @ 911Tabs

#40

By: Dave Matthews Band

Transcribed by: Sean Spicer

driver8@phy.duke.edu

 

All's I have is the backbone...basically a C -> F -> G progression listen if you have the tape for the rhythm -- the middle part is different every time.

 

e -----------------------------------------

-------------------------------------------

-------------------------------------------

-------------------------------------------

-----3--2-----3-----2----3--2-----3-----2--

E ------------1-----3-------------1-----3--

 

 

lead to the middle

 

e ----------------

--------------3---

--------------2---

------------------

-----3--2---------

 

Return to my to my DMB tabs page

The Tablature is Copyright its respective owners.

Sign Up For My Newsletter
Subscribe | Unsubscribe

Site Map | Disclaimer | Privacy Policy | Media Kit | Submissions/Corrections

Website © 2000-2014 mattsmusicpage.com. All rights reserved.

Legal & DMCA: Matt's Music Page has been providing lyrics and tabs in a legal way, paying royalties each year to a few organizations. Then, all lyrics and tabs were removed from the site. Now, there's a new owner to the site, which purchased it August 26, 2014, and he is in negotiation to obtain licensing from BMI at the moment. If you have a specific DMCA request -- please do not hesitate to contact me via the contact button on top. I will do my very best to keep this site fully legal.

Get our toolbar!