Your One-Stop Source For
Music Lyrics
Bass and Guitar Tabs
and More...
>Music Lyrics Bass and Guitar Tabs

 

The Tabs Are Below

Learn To Read Tab
Chords Handbook
Corrections & Additions
Get Official Tab
DMB tabs @ 911Tabs

#36

By: Dave Matthews Band

Transcribed by: Sean Spicer

driver8@phy.duke.edu

 

 

F C

 

e-------------------------|

B-------------------------|

G------10-9------9-7------|

D--------------------10---|

A---8---------------------|

E-------------8-----------|

 

That's about it for the whole song. He uses variations like crazy, but

that's the general skeleton.

 

So, the melody after each chorus:

 

e------------------------------------13-13-12-10-----|

B--------8----------10-8-------8-----------------13--|

G---9-10---9---9-10-------9-10---9-------------------|

D----------------------------------------------------|

A----------------------------------------------------|

E----------------------------------------------------|

 

Return to my to my DMB tabs page

The Tablature is Copyright its respective owners.

Sign Up For My Newsletter
Subscribe | Unsubscribe

Site Map | Disclaimer | Privacy Policy | Media Kit | Submissions/Corrections

Website © 2000-2014 mattsmusicpage.com. All rights reserved.

Legal & DMCA: Matt's Music Page has been providing lyrics and tabs in a legal way, paying royalties each year to a few organizations. Then, all lyrics and tabs were removed from the site. Now, there's a new owner to the site, which purchased it August 26, 2014, and he is in negotiation to obtain licensing from BMI at the moment. If you have a specific DMCA request -- please do not hesitate to contact me via the contact button on top. I will do my very best to keep this site fully legal.

Get our toolbar!

 

[KEYRING] Well Fargo Guitar Key Holder
$1.0
[KEYRING] Well Fargo Guitar Key Holder picture


Retro 90's Bugs Bunny Carrot Guitar Keychain
$6.95
Retro 90's Bugs Bunny Carrot Guitar Keychain picture


Vintage Sheet Music 1981 "101 Songs For Easy Guitar"
$8.13
Vintage Sheet Music 1981


Fender Guitar Custom Shop 2018 7"x7" Calendar Stratocaster,Maple Top...YEAR 2018
$4.95
Fender Guitar Custom Shop 2018 7


12" Gift Bag rock on Laura Freeman Ruth Levison Design w/Electric Guitar Graphic
$4.95
12