Your One-Stop Source For
Music Lyrics
Bass and Guitar Tabs
and More...
Music Lyrics Bass and Guitar Tabs

 

The Tabs Are Below

Learn To Read Tab
Chords Handbook
Corrections & Additions
Get Official Tab
Cure tabs @ 911Tabs

 

The Cure

Fight

 

 

#----------------------------------PLEASE NOTE---------------------------------#

#This file is the author's own work and represents their interpretation of the #

#song. You may only use this file for private study, scholarship, or research. #

#------------------------------------------------------------------------------##

From: "mr. nobody explodes"

Subject: FIGHT by The Cure

 

Fight

(words by Robert Smith, music by Laurence Tolhurst, Simon Gallup, Porl

Thompson, Boris Williams, and Robert Smith)

 

 

This is the track that closes -Kiss Me, Kiss Me, Kiss Me-, a total hopeful

track for Cure fans alike (but I am not a critic so I will not go on).

I have transcribed the basic guitar riff for the verses, the synth line for

the verses as well as chorus, and the guitar chords for the chorus.

 

The verse riff is:

 

E -------------------------------------

B -------------------------------------

G -------------------------------------

D -------------------------------------

A ----1--1p0----0--3--3--1--6----------

E -3---------3-------------------------

 

(make sure you slide between the last two notes, meaning slide between

fret 1 and 6).

 

 

The synthesizer riff (fit for guitar) for the verse is:

 

E -3----1-------------1--||-6------------------1--||

B -3---------4--3--4-----||-8----6----4--3--4-----||

G -----------------------||-----------------------||

D -----------------------||-----------------------||

A -----------------------||-----------------------||

E -----------------------||-----------------------||

 

(the double vertical lines in between means to repeat the riff)

 

 

For the ~Fight! Fight! Fight!~ part, the guitar plays a D5 chord (with

three staccato strums -hence the fight! fight! fight! part- it plays

D5 for about a second after that, then plays the C5 for another second,

then it plays C5 staccato three times. In between is the synth line.

If you work on it, you will know what I mean.

 

 

Synth lines inbetween -Fight! Fight! Fight!-

 

D5 C5 C5 D5

 

E -------------- E ------------------

B -3h4-3---1---- B -1h3-4--4--3-3----

G -------------- .............. G ------------------

D -------------- D ------------------

A -------------- A ------------------

E -------------- E ------------------

 

 

That is basically it. The song ends on D5 and that is about it. Bye-bye

for now.

 

 

Return to my to my Cure tabs page

The Tablature is Copyright its respective owners.

Sign Up For My Newsletter
Subscribe | Unsubscribe

Site Map | Disclaimer | Privacy Policy | Media Kit | Submissions/Corrections

Website © 2000-2014 mattsmusicpage.com. All rights reserved.

Legal & DMCA: Matt's Music Page has been providing lyrics and tabs in a legal way, paying royalties each year to a few organizations. Then, all lyrics and tabs were removed from the site. Now, there's a new owner to the site, which purchased it August 26, 2014, and he is in negotiation to obtain licensing from BMI at the moment. If you have a specific DMCA request -- please do not hesitate to contact me via the contact button on top. I will do my very best to keep this site fully legal.

Get our toolbar!