Your One-Stop Source For
Music Lyrics
Bass and Guitar Tabs
and More...
Music Lyrics Bass and Guitar Tabs

 

The Tabs Are Below

Learn To Read Tab
Chords Handbook
Corrections & Additions
Get Official Tab
Cure tabs @ 911Tabs

Artist: The Cure

Song: Siamese Twins

Album: Pornography

 

Notes: Simon Gallup plays Siamese Twins like this on "Trilogy".

 

 

INTRO:

|-----------------|-----------------|-----------------|-----------------|

|-----------------|-----------------|-----------------|-----------------|

|-----------------|-8---8-8-8-10-8-8|-5---5-5-5-5-5-5-|-8---8-8-8-10-8-8|

|-5---5-5-5-5-5-5-|-----------------|-----------------|-----------------|

 

|-----------------|-----------------|-----------------|-----------------|

|-----------------|-----------------|-----------------|-----------------|

|-----------------|-8---8-8-8-10-8-8|-5---5-5-5-5-5-5-|-8---8-8-8-10-8-8|

|-5---5-5-5-5-5-5-|-----------------|-----------------|-----------------|

 

|-----------------|-----------------|-----------------|-----------------|

|-----------------|-----------------|-----------------|-----------------|

|-----------------|-8---8-8-8-10-8-8|-5---5-5-5-5-5-5-|-8---8-8-8-10-8-8|

|-5---5-5-5-5-5-5-|-----------------|-----------------|-----------------|

 

|-----------------|-----------------|-----------------|-----------------|

|-----------------|-----------------|-----------------|-----------------|

|-----------------|-8---8-8-8-10-8-8|-5---5-5-5-5-5-5-|-8---8-8-8-10-8-8|

|-5---5-5-5-5-5-5-|-----------------|-----------------|-----------------|

 

 

VERSE:

|-----------------|-----------------|-----------------|-----------------|

|-----------------|-----------------|-----------------|-----------------|

|-----------------|-----------------|-5---5-5-5-5-5-5-|-8---8-8-8-10-8-8|

|-5---5-5-5-5-5-5-|-3---3-3-3-3-3-3-|-----------------|-----------------|

I chose an eternity of this

 

|-----------------|-----------------|-----------------|-----------------|

|-----------------|-----------------|-----------------|-----------------|

|-----------------|-----------------|-5---5-5-5-5-5-5-|-8---8-8-8-10-8-8|

|-5---5-5-5-5-5-5-|-3---3-3-3-3-3-3-|-----------------|-----------------|

Like falling angels, the world disappeared

 

|-----------------|-----------------|-----------------|-----------------|

|-----------------|-----------------|-----------------|-----------------|

|-----------------|-----------------|-5---5-5-5-5-5-5-|-8---8-8-8-10-8-8|

|-5---5-5-5-5-5-5-|-3---3-3-3-3-3-3-|-----------------|-----------------|

Laughing into the fire, is it always like this?

 

|-----------------|-----------------|-----------------|-----------------|

|-----------------|-----------------|-----------------|-----------------|

|-----------------|-----------------|-5---5-5-5-5-5-5-|-8---8-8-8-10-8-8|

|-5---5-5-5-5-5-5-|-3---3-3-3-3-3-3-|-----------------|-----------------|

Flesh and blood and the first kiss The first colours The first kiss

 

|-----------------|-----------------|-----------------|-----------------|

|-----------------|-----------------|-----------------|-----------------|

|-----------------|-8---8-8-8-10-8-8|-5---5-5-5-5-5-5-|-8---8-8-8-10-8-8|

|-5---5-5-5-5-5-5-|-----------------|-----------------|-----------------|

 

|-----------------|-----------------|-----------------|-----------------|

|-----------------|-----------------|-----------------|-----------------|

|-----------------|-8---8-8-8-10-8-8|-5---5-5-5-5-5-5-|-8---8-8-8-10-8-8|

|-5---5-5-5-5-5-5-|-----------------|-----------------|-----------------|

 

|-----------------|-----------------|-----------------|-----------------|

|-----------------|-----------------|-----------------|-----------------|

|-----------------|-----------------|-5---5-5-5-5-5-5-|-8---8-8-8-10-8-8|

|-5---5-5-5-5-5-5-|-3---3-3-3-3-3-3-|-----------------|-----------------|

We writhed under a red light

 

|-----------------|-----------------|-----------------|-----------------|

|-----------------|-----------------|-----------------|-----------------|

|-----------------|-----------------|-5---5-5-5-5-5-5-|-8---8-8-8-10-8-8|

|-5---5-5-5-5-5-5-|-3---3-3-3-3-3-3-|-----------------|-----------------|

Voodoo smile, Siamese twins

 

|-----------------|-----------------|-----------------|-----------------|

|-----------------|-----------------|-----------------|-----------------|

|-----------------|-----------------|-5---5-5-5-5-5-5-|-8---8-8-8-10-8-8|

|-5---5-5-5-5-5-5-|-3---3-3-3-3-3-3-|-----------------|-----------------|

A girl at the window looks at me for an hour, then everything falls apart

 

|-----------------|-----------------|-----------------|-----------------|

|-----------------|-----------------|-----------------|-----------------|

|-----------------|-----------------|-5---5-5-5-5-5-5-|-8---8-8-8-10-8-8|

|-5---5-5-5-5-5-5-|-3---3-3-3-3-3-3-|-----------------|-----------------|

Broken inside me, it falls apart

 

 

CHORUS:

|-----------------|-----------------|-----------------|-----------------|

|-----------------|-----------------|-----------------|-----------------|

|-3---3-3-3-3-3-3-|-5---5-5-5-5-5-5-|-----------------|-----------------|

|-----------------|-----------------|-5---5-5-5-5-5-5-|-5---5-5-5-5-5-5-|

The walls and the ceiling move in time

|-----------------|-----------------|-----------------|-----------------|

|-----------------|-----------------|-----------------|-----------------|

|-3---3-3-3-3-3-3-|-5---5-5-5-5-5-5-|-7---7-7-7-7-7-7-|-7---7-7-7-7-7-7-|

|-----------------|-----------------|-----------------|-----------------|

Push a blade into my hands, slowly up the stairs and into the room

Is it always like this?

 

 

|-----------------|-----------------|-----------------|-----------------|

|-----------------|-----------------|-----------------|-----------------|

|-----------------|-8---8-8-8-10-8-8|-5---5-5-5-5-5-5-|-8---8-8-8-10-8-8|

|-5---5-5-5-5-5-5-|-----------------|-----------------|-----------------|

Dancing in my pocket, worms eat my skin, she glows and grows

|-----------------|-----------------|-----------------|-----------------|

|-----------------|-----------------|-----------------|-----------------|

|-----------------|-8---8-8-8-10-8-8|-5---5-5-5-5-5-5-|-8---8-8-8-10-8-8|

|-5---5-5-5-5-5-5-|-----------------|-----------------|-----------------|

With arms outstretched, her legs around me...

 

 

VERSE:

|-----------------|-----------------|-----------------|-----------------|

|-----------------|-----------------|-----------------|-----------------|

|-----------------|-----------------|-5---5-5-5-5-5-5-|-8---8-8-8-10-8-8|

|-5---5-5-5-5-5-5-|-3---3-3-3-3-3-3-|-----------------|-----------------|

In the morning I cried, leave me to die, you won't remember my voice

 

|-----------------|-----------------|-----------------|-----------------|

|-----------------|-----------------|-----------------|-----------------|

|-----------------|-----------------|-5---5-5-5-5-5-5-|-8---8-8-8-10-8-8|

|-5---5-5-5-5-5-5-|-3---3-3-3-3-3-3-|-----------------|-----------------|

I walked away and grew old, you never talk, we never smile

 

|-----------------|-----------------|-----------------|-----------------|

|-----------------|-----------------|-----------------|-----------------|

|-----------------|-----------------|-5---5-5-5-5-5-5-|-8---8-8-8-10-8-8|

|-5---5-5-5-5-5-5-|-3---3-3-3-3-3-3-|-----------------|-----------------|

I scream, you're nothing, I don't need you any more, you're nothing

 

|-----------------|-----------------|-----------------|-----------------|

|-----------------|-----------------|-----------------|-----------------|

|-----------------|-----------------|-5---5-5-5-5-5-5-|-8---8-8-8-10-8-8|

|-5---5-5-5-5-5-5-|-3---3-3-3-3-3-3-|-----------------|-----------------|

It fades and spins, fades and spins...

 

 

CHORUS:

|-----------------|-----------------|-----------------|-----------------|

|-----------------|-----------------|-----------------|-----------------|

|-3---3-3-3-3-3-3-|-5---5-5-5-5-5-5-|-----------------|-----------------|

|-----------------|-----------------|-5---5-5-5-5-5-5-|-5---5-5-5-5-5-5-|

Sing out loud, we all die!!

|-----------------|-----------------|-----------------|-----------------|

|-----------------|-----------------|-----------------|-----------------|

|-3---3-3-3-3-3-3-|-5---5-5-5-5-5-5-|-7---7-7-7-7-7-7-|-7---7-7-7-7-7-7-|

|-----------------|-----------------|-----------------|-----------------|

Laughing into the fire...

 

 

 

OUTRO:

|-----------------|-----------------|-----------------|-----------------|

|-----------------|-----------------|-----------------|-----------------|

|-7---7-7-7-7-7-7-|-7---7-7-7-7-7-7-|-1---1-1-1-1-1-1-|-1---1-1-1-1-1-1-|

|-----------------|-----------------|-----------------|-----------------|

Is it always like this?

 

|-----------------|-----------------|-----------------|-----------------|

|-----------------|-----------------|-----------------|-----------------|

|-7---7-7-7-7-7-7-|-7---7-7-7-7-7-7-|-1---1-1-1-1-1-1-|-1---1-1-1-1-1-1-|

|-----------------|-----------------|-----------------|-----------------|

Is it always like this?

 

|-----------------|-----------------|-----------------|-----------------|

|-----------------|-----------------|-----------------|-----------------|

|-7---7-7-7-7-7-7-|-7---7-7-7-7-7-7-|-1---1-1-1-1-1-1-|-1---1-1-1-1-1-1-|

|-----------------|-----------------|-----------------|-----------------|

Is it always like this?

 

|-----------------|-----------------|-----------------|-----------------|

|-----------------|-----------------|-----------------|-----------------|

|-----------------|-----------------|-----------------|-----------------|

|-----------------|-----------------|-----------------|-----------------|

Is it always like this?

 

 

Return to my to my Cure bass tabs page

The Tablature is Copyright its respective owners.

Sign Up For My Newsletter
Subscribe | Unsubscribe

Site Map | Disclaimer | Privacy Policy | Media Kit | Submissions/Corrections

Website © 2000-2014 mattsmusicpage.com. All rights reserved.

Legal & DMCA: Matt's Music Page has been providing lyrics and tabs in a legal way, paying royalties each year to a few organizations. Then, all lyrics and tabs were removed from the site. Now, there's a new owner to the site, which purchased it August 26, 2014, and he is in negotiation to obtain licensing from BMI at the moment. If you have a specific DMCA request -- please do not hesitate to contact me via the contact button on top. I will do my very best to keep this site fully legal.

Get our toolbar!